Página inicial > Hard Rock > A > Avenged Sevenfold > Nightmare (tablatura)

Nightmare (tablatura)

Avenged Sevenfold


(intro)

|----------------------------------------------------|
|-------1010-99-88---------------------8b------------|
|--/7-7------------10-7----7-------7-9---------------| 4X
|-----------------------10------/8-------------------|
|----------------------------------------------------|
|----------------------------------------------------|

|----------------------------------------------------|
|----8b-10-11-11--11-11-10------13b---15b------------|
|--------------------------12------------------------|
|----------------------------------------------------|
|----------------------------------------------------|
|----------------------------------------------------|

(verso 1)
|----------------------------------------------------|
|----------------------------------------------------|
|----------------------------------------------------|
|---3~--0-0---0-0---3~--0-0---0-0---3~--0-0---0-0----|
|---3~--0-0---0-0---3~--0-0---0-0---3~--0-0---0-0----|
|---3~--0-0---0-0---3~--0-0---0-0---3~--0-0---0-0----|

|-----------------------|
|-----------------------|
|-----------------------|
|--5-6--5-6--5-6--5-6---|
|--5-6--5-6--5-6--5-6---|
|--5-6--5-6--5-6--5-6---|


|--------------------------|
|--------------------------|
|--------------------------|
|---3--0-0--3--0-0-3-0-----|
|---3--0-0--3--0-0-3-0-----|
|---3--0-0--3--0-0-3-0-----|

|-----------------------|
|-----------------------|
|-----------------------|
|--5-6--5-6--5-6--5-6---|
|--5-6--5-6--5-6--5-6---|
|--5-6--5-6--5-6--5-6---|

(pré-refrão)
|------------------------------------------|
|------------------------------------------|
|------------------------------------------|
|--5-6--5-6--5-6--5-6--5-6--5-6--5-6--5-6--|
|--5-6--5-6--5-6--5-6--5-6--5-6--5-6--5-6--|
|--5-6--5-6--5-6--5-6--5-6--5-6--5-6--5-6--|

(refrão 1)
|-------------------------------|
|-------------------------------|
|---7---7-5---5-10---10-3---3---| 2X
|---7---7-5---5-10---10-3---3---|
|---5---5-3---3-8----8--1---1---|
|-------------------------------|

|-------------|
|-------------|
|-2-2-2-2-2-2-|
|-2-2-2-2-2-2-|
|-2-2-2-2-2-2-|
|-------------|

(verso 2)
|--------------------|
|--------------------|
|--------------------| Varias vezes
|--0-----0-----0-----|
|--0-----0-----0-----|
|--0-0-0-0-0-0-0-0---|

(verso 3)
|------------|
|------------|
|-3----5-----|
|-3----5-----| 4X
|-1----3-----|
|------------|

|------------|
|------------|
|-3-3--5-6-7-|
|-3-3--5-6-7-|
|-1-1--3-4-5-|
|------------|

|----------------------------------------------------|
|-------1010-99-88---------------------8b------------|
|--/7-7------------10-7----7-------7-9---------------| 4X
|-----------------------10------/8-------------------|
|----------------------------------------------------|
|----------------------------------------------------|

|----------------------------------------------------|
|----8b-10-11-11--11-11-10------13b---15b------------|
|--------------------------12------------------------|
|----------------------------------------------------|
|----------------------------------------------------|
|----------------------------------------------------|

|----------------------------------------------------|
|----------------------------------------------------|
|----------------------------------------------------|
|---3~--0-0---0-0---3~--0-0---0-0---3~--0-0---0-0----|
|---3~--0-0---0-0---3~--0-0---0-0---3~--0-0---0-0----|
|---3~--0-0---0-0---3~--0-0---0-0---3~--0-0---0-0----|

|-----------------------|
|-----------------------|
|-----------------------|
|--5-6--5-6--5-6--5-6---|
|--5-6--5-6--5-6--5-6---|
|--5-6--5-6--5-6--5-6---|


|--------------------------|
|--------------------------|
|--------------------------|
|---3--0-0--3--0-0-3-0-----|
|---3--0-0--3--0-0-3-0-----|
|---3--0-0--3--0-0-3-0-----|

|-----------------------|
|-----------------------|
|-----------------------|
|--5-6--5-6--5-6--5-6---|
|--5-6--5-6--5-6--5-6---|
|--5-6--5-6--5-6--5-6---|

|-------------------------------|
|-------------------------------|
|---7---7-5---5-10---10-3---3---| 2X
|---7---7-5---5-10---10-3---3---|
|---5---5-3---3-8----8--1---1---|
|-------------------------------|

|-------------|
|-------------|
|-2-2-2-2-2-2-|
|-2-2-2-2-2-2-|
|-2-2-2-2-2-2-|
|-------------|

|----------------------------------------------------|
|----------------------------------------------------|
|----------------------------------------------------|
|---3~--0-0---0-0---3~--0-0---0-0---3~--0-0---0-0----|
|---3~--0-0---0-0---3~--0-0---0-0---3~--0-0---0-0----|
|---3~--0-0---0-0---3~--0-0---0-0---3~--0-0---0-0----|

|-----------------------|
|-----------------------|
|-----------------------|
|--5-6--5-6--5-6--5-6---|
|--5-6--5-6--5-6--5-6---|
|--5-6--5-6--5-6--5-6---|


|--------------------------|
|--------------------------|
|--------------------------|
|---3--0-0--3--0-0-3-0-----|
|---3--0-0--3--0-0-3-0-----|
|---3--0-0--3--0-0-3-0-----|

|-----------------------|
|-----------------------|
|-----------------------|
|--5-6--5-6--5-6--5-6---|
|--5-6--5-6--5-6--5-6---|
|--5-6--5-6--5-6--5-6---|

|-------------------------------|
|-------------------------------|
|---7---7-5---5-10---10-3---3---| 2X
|---7---7-5---5-10---10-3---3---|
|---5---5-3---3-8----8--1---1---|
|-------------------------------|

|-------------|
|-------------|
|-2-2-2-2-2-2-|
|-2-2-2-2-2-2-|
|-2-2-2-2-2-2-|
|-------------|

[[solo]] [não tirei]

|--------------------|
|--------------------|
|--------------------| Varias vezes
|--0-----0-----0-----|
|--0-----0-----0-----|
|--0-0-0-0-0-0-0-0---|


|------------|
|------------|
|-3----5-----|
|-3----5-----| 4X
|-1----3-----|
|------------|

|------------|
|------------|
|-3-3--5-6-7-|
|-3-3--5-6-7-|
|-1-1--3-4-5-|
|------------|

|-------------------------------|
|-------------------------------|
|---7---7-5---5-10---10-3---3---| 2X
|---7---7-5---5-10---10-3---3---|
|---5---5-3---3-8----8--1---1---|
|-------------------------------|

|-------------|
|-------------|
|-2-2-2-2-2-2-|
|-2-2-2-2-2-2-|
|-2-2-2-2-2-2-|
|-------------|

______________________________________________________________
Tab by: Synyster Max

Encontrou algum erro na letra? Por favor, envie uma correção >

Compartilhe
esta música

Ouça estações relacionadas a Avenged Sevenfold no Vagalume.FM

ÚLTIMAS

MIX DE MÚSICAS

ARTISTAS RELACIONADOS