Muito mais que só letras de músicas

  • Vagalume
  • A-Z
  • Estilos
  • Top 100
  • Playlists
  • Rádio
  • Hot Spots
  • Notícias
  • Play
    PLAY

    Afinação: (dropped D)
    Guitarra 1: EBGDAD
    Guitarra 2: EBGDAD
    b-bend
    s-slide

    intro (Com efeito)
    E|---------------------------------| x4
    B|---------------------------------|
    G|-7-7-----------------------------|
    D|-7-7—-6-6------------------------|
    A|-5-5—-6-6------------------------|
    D|------6-6—-0-0-0-0-5p3p0-5p3p0-0-|

    E|-------------| x2
    B|-------------|
    G|-7-----------|
    D|-7—-6—-5—-3--|
    A|-5—-6—-5—-3--|
    D|----6—-5—-3--|

    E|------------------------------|x2
    B|------------------------------|
    G|------------------------------|
    D|------------------------------|
    A|-555555555--------------------|
    D|----------66666666-0000000000-|

    E|-----------------------------------| E|--------------------------|
    B|-----------------------------------| B|--------------------------|
    G|-----------------------------------| G|--------------------------|
    D|-----------------------------------| D|--------------------------|
    A|-55555555-----------------44444444-| A|-55555555-777777----------|
    D|---------66666666-55555555---------| D|----------------3333-2222-|

    E|--------------------------------------------------| x2
    B|--------------------------------------------------|
    G|-7-7-77-----------------55555555--------5~--------|
    D|-7-7-55-00-55-0-3~-0-0—-55555555-0-33-0-5~--------|
    A|-5-5-55-00-55-0-3~-0-0—-33333333-0-33-0-3~-s5-7-8-|
    D|--------00-55-0-3~-0-0-----------0-33-0-----------|

    E|------------------------------|x4
    B|------------------------------|
    G|------------------------------|
    D|------------------------------|
    A|-555555555--------------------|
    D|----------66666666-0000000000-|

    E|-----------------------------------| E|--------------------------|
    B|-----------------------------------| B|--------------------------|
    G|-----------------------------------| G|--------------------------|
    D|-----------------------------------| D|--------------------------|
    A|-55555555-----------------44444444-| A|-55555555-777777----------|
    D|---------66666666-55555555---------| D|----------------3333-2222-|

    E|--------------------------------------------------| x2
    B|--------------------------------------------------|
    G|-7-7-77-----------------55555555--------5~--------|
    D|-7-7-55-00-55-0-3~-0-0—-55555555-0-33-0-5~--------|
    A|-5-5-55-00-55-0-3~-0-0—-33333333-0-33-0-3~-s5-7-8-|
    D|--------00-55-0-3~-0-0-----------0-33-0-----------|

    Riff limpo:
    (V) (W) (X) (Y) (W) (Z)
    E|----------------------------------------------------------------|
    B|------6-----------------5---------------------------------------|
    G|----7--7-7-----7------5--5-5----4--------9--------7--------5----|
    D|---7-7--7----5--5-5--5-5--5---2--2-2---7--7-7---5--5-5---3--3-3-|
    A|--5---------5-5--5--3--------2-2--2---7-7--7---5-5--5---3-3--3--|
    D|-----------5----------------2--------7--------5--------3--------|

    vou por as notas para o arpejo e colocar 1 codigo(nº=dedos)

    E|-------|-------|-------|--------|
    B|---1---|-------|-------|--------|
    G|-------|-------|---3---|--------|
    D|-------|-------|---4---|--------| = (V)
    A|-------|---2---|-------|--------|
    E|-------|-------|-------|--------|

    E|---||--|-------|-------|--------|
    B|---||--|-------|-------|--------|
    G|---||--|-------|-------|--------|
    D|---||--|-------|---3---|--------| = (W)
    A|---||--|-------|-------|--------|
    E|---||--|-------|-------|--------|

    E|-------|---||--|-------|--------|
    B|-------|---||--|-------|--------|
    G|-------|---||--|-------|--------|
    D|-------|---||--|-------|---3----| = (X)
    A|-------|---||--|-------|--------|
    E|-------|---||--|-------|--------|

    E|---||--|-------|-------|--------|
    B|---||--|-------|-------|--------|
    G|---||--|-------|-------|--------| = (Y)
    D|---||--|-------|---3---|--------|
    A|---||--|-------|-------|--------|
    E|---||--|-------|-------|--------|

    E|---||--|-------|-------|--------|
    B|---||--|-------|-------|--------|
    G|---||--|-------|-------|--------| = (Z)
    D|---||--|-------|---3---|--------|
    A|---||--|-------|-------|--------|
    E|---||--|-------|-------|--------|



    Antes do Solo:

    E|-------------| x2
    B|-------------|
    G|-7-----------|
    D|-7—-6—-5—-3--|
    A|-5—-6—-5—-3--|
    D|----6—-5—-3--|

    Solo:

    E|-8(10)------------------8h10--8(10)--------|
    B|------9~-8~---------8h10-----------9~-8~---|
    G|------------7-7h8h10-----------------------|
    D|-------------------------------------------|
    A|-------------------------------------------|
    D|-----------------------------------------0-|

    E|------------------------------------------------------------------8(10)-10h8----10(12)10-|
    B|------------------------------------------------------------10(12)----------10h9---------|
    G|-----------------8(10)----------------10(12)---------------------------------------------|
    D|-10(12)~(12)~(12)-----10(12)~(12)~(12)------10(12)~(12)~(12)-----------------------------|
    A|-----------------------------------------------------------------------------------------|
    D|-----------------------------------------------------------------------------------------|

    E|-8-10-13(15)-18-17-16-15-13-15-15(17)-18-17-15-------------------------------15(16)-|
    B|-------------------------------------------------------13131313-15(17)15---13-------|
    G|-----------------------------------------------13131313------------------13---------|
    D|------------------------------------------------------------------------------------|
    A|------------------------------------------------------------------------------------|
    D|------------------------------------------------------------------------------------|


    E|------------------------------------17181716171817161718171617---|
    B|-15-------18-------17-------20--------------------------------17-|
    G|-----------------------------------------------------------------|
    D|---121212---151515---141414---171717-----------------------------|
    A|-----------------------------------------------------------------|
    D|-----------------------------------------------------------------|

    E|-10131210131210131210-12151412151412151412-15181715181715181715-|
    B|----------------------------------------------------------------|
    G|----------------------------------------------------------------|
    D|----------------------------------------------------------------|
    A|----------------------------------------------------------------|
    D|----------------------------------------------------------------|

    E|-17201917201917-19222019222019-20(22)-|
    B|--------------------------------------|
    G|--------------------------------------|
    D|--------------------------------------|
    A|--------------------------------------|
    D|--------------------------------------|


    outro solo, quando o Zacky e o Syn tocam um dueto.

    E|----------------s20-18b--17-18-17----------------s18-17----------17s13-13-|
    B|-s18b--15-17-18------------------18-20b—17-18-17--------17-18-20----------|
    G|--------------------------------------------------------------------------|
    D|--------------------------------------------------------------------------|
    A|--------------------------------------------------------------------------|
    D|--------------------------------------------------------------------------|

    E|----------s20-18b—17-18-17-----------------s18-17-----------17s13—13--18s15--15-|
    B|-15-17-18------------------18-20b—17-18-17--------17-18-20----—-----------------|
    G|--------------------------------------------------------------------------------|
    D|--------------------------------------------------------------------------------|
    A|--------------------------------------------------------------------------------|
    D|--------------------------------------------------------------------------------|

    Eu naum consegui colocar o resto do solo.

    E|-------------------------------------| x4
    B|-------------------------------------|
    G|-------------------------------------|
    D|-------------------------------------|
    A|--55555555---------------------------|
    D|-----------66666666-0000000000000000-|
    ................
    E|--------------------------------------------------------------------------|
    B|--------------------------------------------------------------------------|
    G|--------------------------------------------------------------------------|
    D|--------------------------------------------------------------------------|
    A|--55555555-------------------44444444-55555555-77777777-------------------|
    D|-----------66666666-55555555----------------------------33333333-22222222-|

    E|----------------------------------------------------------------| x2
    B|----------------------------------------------------------------|
    G|-----------------------5-5-5-5-5-5-5----------------------------|
    D|--0-2--3-3-3-3-3-3-3-3-5-5-5-5-5-5-5-5-5-5-5-5-5-5-5-0----------|
    A|--0-2--3-3-3-3-3-3-3-3-3-3-3-3-3-3-3-5-5-5-5-5-5-5-5-0----------|
    D|--0-2--3-3-3-3-3-3-3-3---------------5-5-5-5-5-5-5-5-0-0000-----|
    ....
    Refrão

    E|--------------------------------|
    B|--------------------------------|
    G|--------------------------------|
    D|--7-7-77-------5-5-----55-0-23--|
    A|--5-5-55-555-3-3-3-333-33-------|
    D|---------555-3-----333----------|

    Riff limpo

    E|----------------------------------------------------------------|
    B|------6-----------------5---------------------------------------|
    G|----7--7-7-----7------5--5-5----4--------9--------7--------5----|
    D|---7-7--7----5--5-5--5-5--5---2--2-2---7--7-7---5--5-5---3--3-3-|
    A|--5---------5-5--5--3--------2-2--2---7-7--7---5-5--5---3-3--3--|
    D|-----------5----------------2--------7--------5--------3--------|

    E|-----------------------------------------------------------------|
    B|-----------------------------------------------------------------|
    G|--7-7-7-7-7-7-7-7-5-5-5-5-4-4-4-4--9-9-9-9-7-7-7-7-5-5-5-5-5-5-5-|
    D|--7-7-7-7-5-5-5-5-5-5-5-5-2-2-2-2--7-7-7-7-5-5-5-5-5-3-3-3-3-3-3-|
    A|--5-5-5-5-5-5-5-5-3-3-3-3-2-2-2-2--7-7-7-7-5-5-5-5-3-3-3-3-3-3-3-|
    D|-----------------------------------------------------------------|

    Encontrou algum erro na letra? Por favor, envie uma correção »

    Comente
    user 300 caracteres restantes. Enviar

    Todas as letras de Avenged Sevenfold

    Publicidade
    Notícias
    Mais notícias »
    Hot Spot
    Top Músicas do Vagalume
    Top 100 »

    As informações deste site são postadas integralmente pelos usuários. É importante dizer que é possível que os dados estejam desatualizados ou incorretos, sendo assim, o Vagalume exime-se de qualquer responsabilidade sobre as informações publicadas.Caso haja interesse em remover ou alterar alguma informação, entre em contato conosco.


    É permitida somente a visualização no site das letras de músicas encontradas aqui, vedada sua reprodução através de quaisquer outros meios (Lei 9610/98).Todas as letras de músicas são propriedade dos seus respectivos autores e divulgadas somente para fins educacionais.All lyrics are property and copyright of their owners. All lyrics are provided for educational purposes only.