Página inicial > Hard Rock > A > Avenged Sevenfold > Afterlife (tablatura)

Afterlife (tablatura)

Avenged Sevenfold


(Intro)

Rhythm Guitar(after the dramatic opera beginning)

e|-----------------------------------------------------------------------|
b|-----------------------------------------------------------------------|
g|-----------------------------------------------------------------------| (2x)
d|-0--0--0--0--0-0---8--8--8--8--8-8---5--5--5--5--5-5---1--1--1--1--1-1-|
a|-0--0--0--0--0-0---8--8--8--8--8-8---5--5--5--5--5-5---1--1--1--1--1-1-|
d|-0--0--0--0--0-0---8--8--8--8--8-8---5--5--5--5--5-5---1--1--1--1--1-1-|


Lead Guitar
e|---------------------------------------------------|
b|---------------------------------------------------|
g|---------------------------------------------------|
d|---------------------------------------------------|
a|--5h8p5-5h8p5-5h8p5----------5h8p5-5h8p5-----------|
d|---------------------0--0-0---------------0--0-0---|
+ + + + + +

Bass
g|---------------------|
d|---------------------|
a|---------------------|
d|--0-0--3-3--5-5------|

(Verse)
Lead And Rhythm Guitar
e|-------------------------------------------------------|
b|-------------------------------------------------------|
g|-------------------------------------------------------| (3x)
d|--------------------------------------------3--5--6----|
a|--5h8p5-5h8p5----------5h8p5-5h8p5----------3--5--6----|
d|---------------0--0-0---------------0--0-0--3--5--6----|
+ + + + + +

e|-------------------------------------------------------------|
b|-------------------------------------------------------------|
g|-------------------------------------------------------------|
d|--------------------------------------------3--5--6-6--5--3--|
a|--5h8p5-5h8p5----------5h8p5-5h8p5----------3--5--6-6--5--3--|
d|---------------0--0-0---------------0--0-0--3--5--6-6--5--3--|
+ + + + + +

Rhythm after short bass part
e|-------------------------------------------------------------|
b|-------------------------------------------------------------|
g|-------------------------------------------------------------|
d|--5--5--5-5-5-5--5--5---(then pause)---5--5--5-5-5-5--5--5---|
a|--3--3--3-3-3-3--3--3------------------3--3--3-3-3-3--3--3---|
d|-------------------------------------------------------------|


Lead
e|-----------------------------------------------------------|
b|-----------------------------------------------------------|
g|--(pause)--9-9-9-/-10-/-12---(pause)---12-12-12-/-14-/-15--|
d|-----------------------------------------------------------|
a|-----------7-7-7-/-8--/-10-------------10-10-10-/-12-/-13--|
d|-----------------------------------------------------------|


Rhythm (the small lead part b4 this i cant tab lol)
e|--------------------------------------------------------|
b|--------------------------------------------------------|
g|--------------------------------------------------------|
d|--5--5--5-5-5-5--5--5--3--3--3-3-3-3--3--3--5--5--6--6--|
a|--3--3--3-3-3-3--3--3--1--1--1-1-1-1--1--1--3--3--4--4--|
d|--------------------------------------------------------|


Lead and Rhythm
e|------------------------------------------------------------------------------|
g|------------------------------------------------------------------------------|
b|------------------------------------------------------------------------------| (2x)
d|--0----------0-------3------3-----3--8---------8-----8--10-------10-------10--|
a|--0----------0-------3------3-----3--8---------8-----8--10-------10-------10--|
d|--0--0-0-0-0-0--0-0--3--3-3-3-3-3-3--8-8-8-8-8-8-8-8-8--10-10-10-10-10-10-10--|
+ + + + + + + + + + + + + + + + + + + +


(Chorus)

Rhythm and Lead together

e|------------------------------------------------------------------------------|
g|------------------------------------------------------------------------------|
b|------------------------------------------------------------------------------| (2x)
d|--3-3-3-3-3-3-3-3--10-10-10-10-10-10-10-10--7-7-7-7-7-7-7-7--8-8-8-8-8-8-8-8--|
a|--3-3-3-3-3-3-3-3--10-10-10-10-10-10-10-10--5-5-5-5-5-5-5-5--8-8-8-8-8-8-8-8--|
d|--3-3-3-3-3-3-3-3--10-10-10-10-10-10-10-10-------------------8-8-8-8-8-8-8-8--|


Then play the (Verse) and (Chorus) again, but this time the chorus is played (4x).

(Bridge)

Lead and Rhythm
e|----------------------------------------------------------------------------------|
g|----------------------------------------------------------------------------------|
b|----------------------------------------------------------------------------------|
d|----------------------------------------------------------------------------------|
a|--0-0--0-0--0-0--0-0--8-8--8-8--8-8--8-8--5-5--5-5--5-5--5-5--8-8--8-8--7-7--7-7--|
d|--0-0--0-0--0-0--0-0--8-8--8-8--8-8--8-8--5-5--5-5--5-5--5-5--8-8--8-8--7-7--7-7--|
(2x) all Palm muted

e|----------------------------------------------------------------------------------|
g|----------------------------------------------------------------------------------|
b|----------------------------------------------------------------------------------| (4x)
d|--0-0--0-0--0-0--0-0--8-8--8-8--8-8--8-8--5-5--5-5--5-5--5-5--8-8--8-8--7-7--7-7--|
a|--0-0--0-0--0-0--0-0--8-8--8-8--8-8--8-8--5-5--5-5--5-5--5-5--8-8--8-8--7-7--7-7--|
d|--0-0--0-0--0-0--0-0--8-8--8-8--8-8--8-8--5-5--5-5--5-5--5-5--8-8--8-8--7-7--7-7--|


The above is played during the solo as well. I will continue tabbing this later on. Hope
enjoy it!


|Legend|

h - hammer on
p - pull off
/ - slide upwards
+ - palm muted
(pause) - means the guitar does not play anything

Encontrou algum erro na letra? Por favor, envie uma correção >

Compartilhe
esta música

Ouça estações relacionadas a Avenged Sevenfold no Vagalume.FM

ÚLTIMAS

MIX DE MÚSICAS

ARTISTAS RELACIONADOS