Página inicial > Hard Rock > A > Avenged Sevenfold > A Little Piece Of Heaven (tablatura)

A Little Piece Of Heaven (tablatura)

Avenged Sevenfold


(intro)

E|-0--3--2--0-----0--2--0----------------------------|----------|
B|-------------4-----------0--1-----0--------0--1--0-|----3-----|
G|-------------------------------2-----0--2----------|----------|
D|---------------------------------------------------|----------|
A|-------------2--------------------2----------------|----------|
D|-0-------------------------------------------------|----------|

14 segundos
E|--------------------------|
B|--------------------------|
G|--------------------------|
D|--------------------------|
A|--------------------------|
D|-0-0-0-0-0-0-0-3-3-3-3-3--|
* * * * * * * * * * * *
37 segundos
E|-----------------------------------------------------------|
B|-----------------------------------------------------------|
G|-----------------------------------------------------------|
D|-----------------------------------------------------------|
A|-0-0--0-0--0-0--3-3--3-3--3-3--5-5--5-5--5-5--6-6--6-6--6-6|
D|-0-0--0-0--0-0--3-3--3-3--3-3--5-5--5-5--5-5--6-6--6-6--6-6|

1:36, 3:38, 6:30
E|--------------------|
B|--------------------|
G|--------------------| (2x)
D|--------------------|
A|--------------------|
D|-0-2-3-8-7-3-2-0-3-2|

4:52
E|-------|------|-------|------|
B|-------|------|-------|------|
G|-------|------|-------|------|
D|-------|------|-------|------|
A|-------|------|-------|------|
D|-3-8-7-|-5-8-7|-2-8-7-|-0-8-7|

Encontrou algum erro na letra? Por favor, envie uma correção >

Compartilhe
esta música

Ouça estações relacionadas a Avenged Sevenfold no Vagalume.FM

ÚLTIMAS

MIX DE MÚSICAS

ARTISTAS RELACIONADOS