Página inicial > Rock > A > Autoramas > Música de Amor (tablatura)

Música de Amor (tablatura)

Autoramas


Autoramas - Música de Amor

leonardo talarico

INTRO:
E|----------------------------------------------------------------------------------------
B|----------------------------------------------------------------------------------------
G|----------------------------------------------------------------------------------------
D|---12-12-12--11--9-------------------------------------------------------------------
A|------------------------12-12-12---12--10-9----------------------9-9-10-10--12---
E|------------------------------------------------12-12--12--10-12---------------------

E|-----------------------------------------------------------------------------
B|-----------------------------------------------------------------------------
G|-----------------------------------------------------------------------------
D|---12-12-12--11--9-------------------------------------------------------
A|-----------------------12-12-12---12--10-9-------------------------------
E|-----------------------------------------------12-12--12--10-12--9-9-9--



E|-----------------------------------------------------------------------------
B|-----------------------------------------------------------------------------
G|-----------------------------------------------------------------------------
D|--11-11-11-9-11-9-11-11-9-9-------11-11-11-9-11-12-12-12-11-9--
A|--0--0--0--0-0--0-0--0--0-0---------0--0--0--0-0--0--0--0--0--0------
E|--0--0--0--0-0--0-0--0--0-0---------0--0--0--0-0--0--0--0--0--0------

Chega mais perto do ouvido certo
Cola seu ouvido na caixa de som
Hey não se acanhe talvez você ganhe
Apenas um motivo pra não viver mais só

E|----------------------------------------------------------------------------
B|----------------------------------------------------------------------------
G|----------------------------------------------------------------------------
D|--11-11-11-9-11-0--0--0-----------11-11-11-9-11-12-12-12-11-9---
A|--0--0--0--0-0--11-11-11----------0--0--0--0-0--0--0--0--0--0-------
E|--0--0--0--0-0--0--0--0------------0--0--0--0-0--0--0--0--0--0-------

Posso me incluir nos seu dia
Ser visível imprevisível pra depois
Posso fazer sua alegria
Ser canção inesquecível
Pra vocês dois



Refrão:

A F#
Eu te adoro tanto
A F#
Você não imagina quanto
B
Quero ouvir uma canção que diz assim
A F#
Eu te adoro tanto
A F# B C#
Você não imagina quanto


E|--------------------------------------------------------------------------------
B|--------------------------------------------------------------------------------
G|--------------------------------------------------------------------------------
D|--11-11-11-9-11-9-11-11-9-9-------11-11-11-9-11-12-12-12-11-9-----
A|--0--0--0--0-0--0-0--0--0-0-------0--0--0--0-0--0--0--0--0--0-----------
E|--0--0--0--0-0--0-0--0--0-0-------0--0--0--0-0--0--0--0--0--0-----------

Procure com uns traços Palavra um traço
Que me transforma em Música de Amor
Faço companhia Você não tá sozinha
Escute bem alto Não vou decepciona

Encontrou algum erro na letra? Por favor, envie uma correção >

Compartilhe
esta música

Ouça estações relacionadas a Autoramas no Vagalume.FM

ÚLTIMAS

MIX DE MÚSICAS

ARTISTAS RELACIONADOS