• Vagalume
  • A-Z
  • Estilos
  • Top 100
  • Playlists
  • Rádio
  • Hot Spots
  • Notícias
  • PLAY

    Instrumento:
    só que são tocados da seguinte maneira,
    conforme a introdução:
    
    
    
    INTRODUÇÃO
    e|-------------0----|
    B|------6-----------|
    G|------7-----------|
    D|-----7------5-----|
    A|--3/5------3------|
    E|------------------|
    
    Bm    =  x24432
    D     =  xx0232 
    G     =  320033
    A     =  x02220  
    C#sus =  xx6674  
    C#m   =  xx2120
    Gmaj7 =  3X0002
    A/D   =  xx0220
    G6    =  320000
    D/F#  =  2X023X
    A/G   =  3X2220
    F#m   =  xx4222
    F#m7  =  xx2222
    Fmaj7 =  xx3210
    E7    =  020100  
    Eb    =  xx5343 
    Eb7   =  xx1323 
    D9    =  x54555
    D9/F# =  2X021X
    
              Bm           A               Bm    A     Bm A  Bm A
    There's a little black spot on the sun    to-day 
    
             G         A           G         A   C#sus  C#m  Gmaj7
    It's the same old thing as yes - ter - day
    
              Bm         A                 Bm      A   Bm A  Bm A
    There's a black hat caught in the high   tree top
    
              G         A               G      A   C#sus C#m Gmaj7
    There's a flagpole rag and the wind  won't stop
    
           A/D           G6             D/F#     G
    I have stood here before inside the pouring rain
    
             A/D              G6             D/F#      G
    with the world turning cir-cles running 'round my brain.
    
            A/D           G6               D/F#       G
    I guess I'm always hop-ing that you'll end  this reign
    
             A/D      G6           D/F#     G
    but it's my  destiny to be the king of pain.
    
           
               Bm 
    There's a  little black spot on the sun today           
              
    that's my soul up there
                                
             A/G
    It's the same old thing as yesterday
    
    F#m                       G
    that's my soul up there
    
              Bm
    There's a black hat caught in a high tree top
    
    that's my soul up there
    
              A/G 
    There's a flagpole rag and the wind won't stop
    
    F#m                       G
    that's my soul up there
    
           D                                    G
    I have stood here before inside the pouring rain
    
             D                                        G
    with the world turning circles running 'round my brain.
    
            D                                         G
    I guess I'm always hoping that you'll end this reign
    
             D                             G
    But it's my destiny to be the king of pain.
    
               Bm
    There's a fossil that's trapped in a high cliff wall
    
    that's my soul up there
    
               A 
    There's a dead salmon frozen in a water fall
    
    F#m                        G
    that's my soul up there
    
              Bm
    There's a blue whale beached by a springtide's ebb
    
    that's my soul up there
    
              A/G
    There's a butterfly trapped in a spider's web
    
    F#m                       G
    that's my soul up there
    
            D                                    G
    I have stood here before inside the pouring rain
    
               D                                      G
    with the world turning circles running 'round my brain
    
             D                                       G
    I guess I'm always hoping that you'll end this reign
    
             D                              G
    but it's my destiny tro be the king of pain.
    
                       G
    There's a king of pain.
    
    A                                        G
    There's a king on a throne with his eyes   torn out
    
    A                                 G
    There's a blindman looking for a shadow of doubt;
    
    A                                 G
    There's a rich man sleeping on a golden bed
    
    A                               D/G       Bm
    There's a skeleton choking on a crust of bread.
    
    
    [ solo ]
    
                  Bm
    There's a red fox torn by a huntsmen's pack
    
    that's my soul up there
    
              A/G
    There's a black winged gull with a broken back
    
    F#m                    G
    that's my soul up there
    
               F#m7        Fmaj7           E7  Eb
    There's a little black spot  on the sun  today
    
             F#m7      Fmaj7      Eb7      D9    D9/F#
    It's the same old thing  as yes - ter - day
    
            D                                    G
    I have stood here before inside the pouring rain
    
              D                                       G
    with the world turning circles running 'round my brain
    
            D                                        G
    I guess I'm always hoping that you'll end this reign
    
             D                             G      D
    but it's my destiny to be the king of pain
    
    G                D
       King of pain
    
    [ canto final com: "I will always be ..." ]
    
    
    Versão 2
    -======-
    
    Intro: Tocar Parte A 2X.
    
    Parte A
    e|---------------------2---------------------------2--------|
    B|----------------------------------------------------------|
    G|---------6---------------4------------6---------------4---|
    D|------6--6-------4-----4------4/6--6--6-------4-----4-----|
    A|---4----------2---------------2/4----------2--------------|
    E|----------------------------------------------------------|
    There’s a little black spot on sun today.
    (Repete Parte A)
    
    Parte B
    e|--------------------2--------------------------2----------|
    B|----------------------------------------------------------|
    G|---------2---------------4-----------2--------------4-----|
    D|------2---------4------4----------2---------4-----4-------|
    A|---0---------2-----------------0---------2----------------|
    E|----------------------------------------------------------|
    It’s the same old thing as yesterday.
    
    Parte C1
    e|----------------------------------------------------|
    B|-----------9-------7--------------------------------|
    G|------------------------6~---------6~-------6~------|
    D|---6/8--8-------8----8-----------7--------7---------|
    A|---4/6-------6-----------------0--------0-----------|
    E|----------------------------------------------------|
    
    Parte A
    There’s a black hat caught in a high tree top.
    (Repete Parte A)
    
    Parte B
    There’s a flagpole rag and the wind won’t stop.
    
    Parte C2
    e|-------------------------------------------------------|
    B|-----------9-------7-----------------------------------|
    G|------------------------6~----------6~-----4~-----2~---|
    D|---6/8--8-------8----8-----------7—-7~-----6~-----4~---|
    A|---4/6-------6-----------------0--------0------0-------|
    E|-------------------------------------------------------|
    
    
    Refrão 1: (suave)
    e|-------------------------------------------------------|
    B|---------5-----------5--------------4-----------2------|
    G|---------4---------4---4----------4-----------2---2----|
    D|------2---------2---------------------------2----------|
    A|-----------------------------------------0-------------|
    E|---0---------2-----------------4-----------------------|
    
    I have stood here before inside the pouring rain
    With the world turning circles running ‘round my brain
    I guess I’m always hoping that you’ll end this reign
    But it’s my destiny to be the king of pain.
    
    Parte A
    There’s a fossil that’s trapped in a high cliff wall
    (Repete Parte A) 
    That’s my soul up there.
    
    Parte B
    There’s a dead salmon frozen in a waterfall.
    Parte C1
    That’s my soul up there.
    
    Parte A
    There’s a blue whale beached by a springtide’s ebb
    (Repete Parte A) 
    That’s my soul up there.
    
    Parte B
    There’s a butterfly trapped in a spider’s web.
    Parte C2
    
    Refrão 2: (mais rápido)
         E	   E/F#		 A?9/G#     A
    e|---------------------------------------------------------|
    B|---------5---------5---------------4----------2----------|
    G|---------4--------------4----------4---------------2-----|
    D|------2---------2----2--2-------4----------2----2--2-----|
    A|----------------------------------------0----------------|
    E|---0---------2---------------4---------------------------|
    
    I have stood here before inside the pouring rain
    With the world turning circles running ‘round my brain
    I guess I’m always hoping that you’ll end this reign
    But it’s my destiny to be the king of pain
    
    B7			   C#m7			     B7
    There’s a king on a throne with his eyes torn out
    		         C#m7			   B7
    There’s a blind man looking for a shadow of doubts
    			   C#m7		     B7
    There’s a rich man sleeping on a golden bed
    		        C#m7			 B7       C#m7...
    There’s a skeleton chocking on a crust of bread.
    
    3X
    e|-------------------------------------------------|
    B|---------5--0--7--9--7---------5--0--7--5--7-----|
    G|---4--6------------------4--6--------------------|
    
    e|----------------------------------5-----5/7-5----|
    B|---------4--5--7--5~-4~-2~-----2--2--2-----------|
    G|---4--6------------------------------------------|
    
    
    Parte A
    There’s a red fox torn by a huntsman’s pack
    (Repete Parte A)
    That’s my soul up there.
    
    Parte B
    There’s a black winged gull with a broken back
    Parte C1
    That’s my soul up there.
    
    Parte A
    There’s a little black spot on sun today
    (Repete Parte A)
    
    Parte B
    It’s the same old thing as yesterday.
    
    e|---7---4---7---5---------------------|
    B|---4---4---4---5---------------------|
    G|---4---4---4---6------6----4----2----|
    D|---4-----------7------7----6----4----|
    A|--------------------0----0----0------|
    E|-------------------------------------|
    
    
    Refrão 2.
    
    		    E  E/F#   A?9/G#  A
    ...Queen  of  pain  I’ll  always  be...
    ...Queen  of  pain  I’ll  always  be...
    
    
    	   EADGBE
    A?9/G# = 404440
    
    Sugestões, correções (ou a cifra correta do acorde acima) são bem aceitos!


    Encontrou algum erro na letra? Por favor, envie uma correção »

    Comente
    user 300 caracteres restantes. Enviar

    Todas as letras de Alanis Morissette

    Publicidade
    Notícias
    Mais notícias »
    Hot Spot
    Top Músicas do Vagalume
    Top 100 »

    As informações deste site são postadas integralmente pelos usuários. É importante dizer que é possível que os dados estejam desatualizados ou incorretos, sendo assim, o Vagalume exime-se de qualquer responsabilidade sobre as informações publicadas.Caso haja interesse em remover ou alterar alguma informação, entre em contato conosco.


    É permitida somente a visualização no site das letras de músicas encontradas aqui, vedada sua reprodução através de quaisquer outros meios (Lei 9610/98).Todas as letras de músicas são propriedade dos seus respectivos autores e divulgadas somente para fins educacionais.All lyrics are property and copyright of their owners. All lyrics are provided for educational purposes only.