• Vagalume
  • A-Z
  • Estilos
  • Top 100
  • Playlists
  • Rádio
  • Hot Spots
  • Notícias
  • PLAY

    Instrumento:
    B-----------------------------------------------|
       G----------4-----5-----7--7--7------------------|
       D----7-----4-----5-----7--7--7-------5----------|
       A----7-----2-----3-----5--5--5--5h7------7\3----|
       E----5------------------------------------------|
    
      verse-
            F#5 A       |---PM----|   |---|    |--|
       E------------------------------------------------|
       B------------------------------------------------|
       G------------/9----------------------------------|
       D----4b--2---/9--------------7-------5-----------|
       A----4b--2---/7--------------7-------5-----------|
       E----2b--0--------0--0----0------0-------0-------|


    Encontrou algum erro na letra? Por favor, envie uma correção »

    Comente
    user 300 caracteres restantes. Enviar

    Todas as letras de Aerosmith

    Publicidade
    Notícias
    Mais notícias »
    Hot Spot
    Top Músicas do Vagalume
    Top 100 »

    As informações deste site são postadas integralmente pelos usuários. É importante dizer que é possível que os dados estejam desatualizados ou incorretos, sendo assim, o Vagalume exime-se de qualquer responsabilidade sobre as informações publicadas.Caso haja interesse em remover ou alterar alguma informação, entre em contato conosco.


    É permitida somente a visualização no site das letras de músicas encontradas aqui, vedada sua reprodução através de quaisquer outros meios (Lei 9610/98).Todas as letras de músicas são propriedade dos seus respectivos autores e divulgadas somente para fins educacionais.All lyrics are property and copyright of their owners. All lyrics are provided for educational purposes only.