Página inicial > Rock > A > Aerosmith > Just Push Play (tablatura)

Just Push Play (tablatura)

Aerosmith



E|--10-10-10-10-10---10--10--10-10----|
B|--10-10-10-10-10---10--10--10-10----|


E|-----------------------------------------------------------|
B|-----------------------------------------------------------|
G|-----------------------------------------------------------|
D|-----------------------------------------------------------|
A|---------5---5------------------5---5----------------------|
D|-0h5-6-7---7---7-6-5-0--0h5-6-7---7---7-5-0----------------|



D|---5--5--5--5---|
A|---5--5--5--5---|
D|---5--5--5--5---|





E|---13--13\10---|
B|---13--13\10---| x2




D|-------0-------0-------|
A|-----------------------|
D|-5h6h7---5h6h7---0-----|

Por Naiana Hess

Encontrou algum erro na letra? Por favor, envie uma correção >

Compartilhe
esta música

Ouça estações relacionadas a Aerosmith no Vagalume.FM

ÚLTIMAS

MIX DE MÚSICAS

ARTISTAS RELACIONADOS