Muito mais que só letras de músicas

  • Vagalume
  • A-Z
  • Estilos
  • Top 100
  • Playlists
  • Hot Spots
  • Notícias
  • PLAY

    Instrumento:
    e|--10---------------------------------------------------------------------------|
    B|--12---------------------------------------------------------------------------|
    G|--12-----5------7------9------12------5----------------------------------------|
    D|--12-----5--x8--7--x4--9--x4--12--x8--5--x8------------------------------------|
    A|--10-----3------5------7------10------3----------------------------------------|
    E|-------------------------------------------------------------------------------|
    
    e|-----------5--3-----------------5--3---------------------------------------|
    B|-----------------0---------------------------------------------------------|
    G|----0h2---------------0h2-------------2------------------------------------|
    D|---------------------------------------------------------------------------|
    A|---------------------------------------------------------------------------|
    E|---------------------------------------------------------------------------|
    solo
    e|-----12-12-12-12-12-12-12-12-12-12-12-12-12-12-----------------------------|
    B|------------------------------------------------8-8-8-10-10-10-10----------|
    G|---------------------------------------------------------------------------|
    D|---------------------------------------------------------------------------|
    A|---------------------------------------------------------------------------|
    E|---------------------------------------------------------------------------|
    
    e|-------------17--15--------12--------------------17--15-------|
    B|-----8h10-------------12--------13-----8h10---------------10--|
    G|--------------------------------------------------------------|
    D|--------------------------------------------------------------|
    A|--------------------------------------------------------------|
    E|--------------------------------------------------------------|
    
    e|---------------------------------------------------------------------------|
    B|---------------------------------------------------------------------------|
    G|----12----9----------------------------------------------------------------|
    D|----12-x3-9-x3-12----10----9-8-7-5-----------------------------------------|
    A|----10----7----12-x3-10-x3-9-8-7-5-----------------------------------------|
    E|---------------10-----8----7-6-5-3-----------------------------------------|
    
                 Dm                                 F                        G
    They Say The Devil's Water It Aint So Sweet You Dont Have To Drink Right Now
    
    Em                      F     G
       But You Can Dip Your Feet, Every Once In A Little While
    
    
    Outro
    Repeat Verse
    
    Outro Solo
    e|-----12-12-12-12-12-12-12-12-12-12--------15-15-15-15-15-15-15-15-15-15--------|
    B|------------------------------------8-10---------------------------------8-10--|
    G|-------------------------------------------------------------------------------|
    D|-------------------------------------------------------------------------------|
    A|-------------------------------------------------------------------------------|
    E|-------------------------------------------------------------------------------|
    
    e|--10---------------------------------------------------------------------------|
    B|--12---------------------------------------------------------------------------|
    G|--12-----5------7------9------12------5----------------------------------------|
    D|--12-----5--x8--7--x4--9--x4--12--x8--5--x8------------------------------------|
    A|--10-----3------5------7------10------3----------------------------------------|
    E|-------------------------------------------------------------------------------|
    
    e|-----------5--3-----------------5--3---------------------------------------|
    B|-----------------0---------------------------------------------------------|
    G|----0h2---------------0h2-------------2------------------------------------|
    D|---------------------------------------------------------------------------|
    A|---------------------------------------------------------------------------|
    E|---------------------------------------------------------------------------|
    solo
    e|-----12-12-12-12-12-12-12-12-12-12-12-12-12-12-----------------------------|
    B|------------------------------------------------8-8-8-10-10-10-10----------|
    G|---------------------------------------------------------------------------|
    D|---------------------------------------------------------------------------|
    A|---------------------------------------------------------------------------|
    E|---------------------------------------------------------------------------|
    
    e|-------------17--15--------12--------------------17--15-------|
    B|-----8h10-------------12--------13-----8h10---------------10--|
    G|--------------------------------------------------------------|
    D|--------------------------------------------------------------|
    A|--------------------------------------------------------------|
    E|--------------------------------------------------------------|
    
    e|---------------------------------------------------------------------------|
    B|---------------------------------------------------------------------------|
    G|----12----9----------------------------------------------------------------|
    D|----12-x3-9-x3-12----10----9-8-7-5-----------------------------------------|
    A|----10----7----12-x3-10-x3-9-8-7-5-----------------------------------------|
    E|---------------10-----8----7-6-5-3-----------------------------------------|
    
                 Dm                                 F                        G
    They Say The Devil's Water It Aint So Sweet You Dont Have To Drink Right Now
    
    Em                      F     G
       But You Can Dip Your Feet, Every Once In A Little While
    
    
    Outro
    Repeat Verse
    
    Outro Solo
    e|-----12-12-12-12-12-12-12-12-12-12--------15-15-15-15-15-15-15-15-15-15--------|
    B|------------------------------------8-10---------------------------------8-10--|
    G|-------------------------------------------------------------------------------|
    D|-------------------------------------------------------------------------------|
    A|-------------------------------------------------------------------------------|
    E|-------------------------------------------------------------------------------|
    


    Comente
    user 300 caracteres restantes. Enviar

    Todas as letras de The Killers

    Publicidade
    Notícias
    Mais notícias »
    Hot Spot
    Top Músicas do Vagalume
    Top 100 »

    As informações deste site são postadas integralmente pelos usuários. É importante dizer que é possível que os dados estejam desatualizados ou incorretos, sendo assim, o Vagalume exime-se de qualquer responsabilidade sobre as informações publicadas.Caso haja interesse em remover ou alterar alguma informação, entre em contato conosco.


    É permitida somente a visualização no site das letras de músicas encontradas aqui, vedada sua reprodução através de quaisquer outros meios (Lei 9610/98).Todas as letras de músicas são propriedade dos seus respectivos autores e divulgadas somente para fins educacionais.All lyrics are property and copyright of their owners. All lyrics are provided for educational purposes only.