Muito mais que só letras de músicas

  • Vagalume
  • A-Z
  • Estilos
  • Top 100
  • Playlists
  • Hot Spots
  • Notícias
  • PLAY

    Instrumento:
    The Beatles
    Something 
    George Harrison 
    
    intro
    e ---------------------------
    B -10--13r12--10--11--12------
    G --------------------------
    
    C                          C7+
    Something in the way she moves
    C7                            F      E            D --3--2--0----
        Attracts me like no other lover 
    D                D7      G                  B ----8-5---5----
    Something in the way she woos me            G --7-----7-----
    
    
      Am                       Am7+         B --3-3-4b5----------
    I don't want to leave her now 
    
        Am7                 D9           B --4h5b6-------
    You know I believe and how 
    
    e ----------------------------------
    B -10--13r12--10--11--12--13-----------
    G ----------------------------------
    
    C                          C7+
    Somewhere in her smile she knows 
    C7                             F       E
        That I don't need no other lover 
    D                 D7          G
    Something in her style that shows me
    
    
      Am                       Am7+
    I don't want to leave her now 
        Am7                D9
    You know I believe and how 
    
    e ----------------------------------
    B -10--13r12--10--11--12--14~~~~--------
    G ----------------------------------
    
    
    A                A7+             F#m      E
       You're asking me will my love grow 
            D     G        A
    I don't know, I don't know 
    
    tocar na hora do A:
    e --------------------------------------
    B --------------------2---------------
    G --------------------2------------------
    D --------------------2--------------
    A --------------------0------------
    E --5--4--3--2--1--0-----------------
    
    A              A7+              F#m     E
        You stick around and it may show 
            D     G       C
    I don't know, I don't know 
    
    tocar na hora do C:
    e -------------------------------
    B --------------------1-------------
    G --------------------0----------
    D --------------------2------------
    A --3--2--0-----------3--------
    E -----------3--1--0------------
    
    solo:
      C          C7+                 C7   
    e ------------------------------------------------------------
    B -------8----------8b10-10r8----------8h10-8--10/11--13-13----
    G ---7h9---9----7h9------------9----7h9------------------------
    D ----------------------------------------------------------
    A ------------------------------------------------------------
    E ---------------------------------------------------------------
                  F                               E
    e ------------------------------------------------------------
    B --13b15r13--15b17r15--13--10---------13-13--------------------
    G -------------------------------12/14--------------12-12----------
    D --------------------------------------------12/14-------------
    A --------------------------------------------------------------
    E --------------------------------------------------------------
    
        D             D7         G
    e ---------------------------------------------------------------
    B ------------------------------------------------------------------
    G -------------------11-11---14b16r14---14b16r14--14b16r14--12--------
    D ----------------12----------------------------------------------
    A --12----14--12-------------------------------------------------
    E --------------------------------------------------------------
    
                                  Am
    e ----------------------------------------------------------------
    B ------14-13-12/16--15-14-------------------------------------------
    G --12--------------------------------------------------------------
    D ----------------------------12b14r12--12b14r12--12b14r12--10---
    A -----------------------------------------------------------------
    E ----------------------------------------------------------------
        
        Am7+
    e -------------------------------------------------------
    B -----------------------------------------------------
    G ------------------------------------------------------
    D --12b14r12--12b14r12--12b14r12--12b14r12--10--------
    A -----------------------------------------------------
    E ------------------------------------------------------
    
        Am7                          D9                  C 
    e ---------------------------------10/12-10-8h10--8-----------
    B -------------------------------8-------------------10------
    G ---------------------------7/9---------------------------
    D --12b14r12--12b14r12--10-----------------------------------
    A -------------------------------------------------------
    E ---------------------------------------------------------
    
    e -------------------------------------------------------
    B --10--13r12--10--11--12--13---------------------------
    G ------------------------------------------------------
    D -------------------------------------------------------
    A -----------------------------------------------------
    E ------------------------------------------------------
    
    
    C                          C7+
    Something in the way she knows 
    C7                           F                    E
         And all I have to do is think of her 
    D                D7         G
    Something in the things she shows me 
    
    
    Am                         Am7+
    I don't want to leave her now 
        Am7                 D9       C
    You know I believe and how 
    
                               A                       C
    e ------------------------------------16-15-14-------------
    B --10--13r12--10--11--12--14------14----------------
    G ------------------------------------------------------
    
                               C
    e -----------------------------------------
    B --10--13r12--10--11--12--13-----------
    G -------------------------------------
    
    
    Acordes:
    
    C7+   x32000
    Am7+  x02110
    D9    xx0230
    A7+   x02120
    
    
    
    
    Correção: Paulo, o ermitão (overdoser@bol.com.br)


    Comente
    user 300 caracteres restantes. Enviar

    Todas as letras de The Beatles

    Publicidade
    Notícias
    Mais notícias »
    Hot Spot
    Top Músicas do Vagalume
    Top 100 »

    As informações deste site são postadas integralmente pelos usuários. É importante dizer que é possível que os dados estejam desatualizados ou incorretos, sendo assim, o Vagalume exime-se de qualquer responsabilidade sobre as informações publicadas.Caso haja interesse em remover ou alterar alguma informação, entre em contato conosco.


    É permitida somente a visualização no site das letras de músicas encontradas aqui, vedada sua reprodução através de quaisquer outros meios (Lei 9610/98).Todas as letras de músicas são propriedade dos seus respectivos autores e divulgadas somente para fins educacionais.All lyrics are property and copyright of their owners. All lyrics are provided for educational purposes only.