Muito mais que só letras de músicas

  • Vagalume
  • A-Z
  • Estilos
  • Top 100
  • Playlists
  • Hot Spots
  • Notícias
  • PLAY

    Instrumento:
    Ouça bem a Musica Para tirar os tempos!!!
    
    O  teu olhar no meu... 
          Ab           F         Eb         G
    E|------------------------------------------------
    B|------------------------------------------------
    G|-3-3-3-3-3~-------------------------------------
    D|-3-3-3-3-3~--3-3-3-3-3~-8-8-8-8-8~-3-3-3-3-3----
    A|-1-1-1-1-1~--3-3-3-3-3~-8-8-8-8-8~-3-3-3-3-3----
    D|-------------1-1-1-1-1~-6-6-6-6-6~-1-1-1-1-1----
     pm. . . .     . . . .    . . . .    . . . .  se for daqule jeito  
    
    Eu sou o descarado, come-quieto....
    e|--------------------------------------
    B|--------------------------------------
    G|--------------------------------------
    D|--5-5-5-5-5~-3-3-3-3-3~-8-8 8-8-8~-3~~
    A|--5-5-5-5-5~-3-3-3-3-3~-8-8-8-8-8~-3~~
    D|--3-3-3-3-3~-1-1-1-1-1~-6-6-6-6-6~-3~~
     pm . . . .    . . . .    . . . .
    
    INTRO ( SOLINHO )     3X| A BASE DO SOLINHO É O VERSO 
    e|----------------------| 
    B|----------------------|
    G|----------------------|
    D|-3-3-3-0----0-----0---|
    A|---------1-31-3----1~|
    D|----------------------|
    
    NA QUARTA VEZ!
    e|---------------------------|
    B|---------------------------|
    G|---------------------------|
    D|-3-3-3-0----0-----0--------|
    A|---------1-31-3----111-1|
    D|---------------------------|
    
    Verso
    E|------------------------------------------------
    B|------------------------------------------------
    G|-3-3-3-3-3--------------------------------------
    D|-3-3-3-3-3---3-3-3-3-3-1-1-1-1-1-3-3-3-3-3------
    A|-1-1-1-1-1---3-3-3-3-3-1-1-1-1-1-3-3-3-3-3------
    D|-------------3-3-3-3-3-1-1-1-1-1-3-3-3-3-3------
    
    e|-----------------------------------------
    B|-----------------------------------------
    G|-----------------------------------------
    D|--5-5-5-5-5--3-3-3-3-3--1-1-1-1-13-3-3-3
    A|--5-5-5-5-5--3-3-3-3-3--1-1-1-1-13-3-3-3
    D|--5-5-5-5-5--3-3-3-3-3--1-1-1-1-13-3-3-3
    
    PRE REFRÃO 2X
    
    E QUANDO TUDO...
    e|--------------------------------------
    B|--------------------------------------
    G|--------------------------------------
    D|--1-1-1-5-5-5-3-3-3-3-----------------
    A|--1-1-1-5-5-5-3-3-3-3-----------------
    D|--1-1-1-5-5-5-3-3-3-3-----------------
    
    REFRÃO
    
    JÁ FOI SE QUE...
    E|----------------------------------------------------
    B|----------------------------------------------------
    G|-3-3-3-3-3------------------------------------------
    D|-3-3-3-3-3---3-3-3-3-3-5-5-5-5--1-1-1-1-3-3-3-------
    A|-1-1-1-1-1---3-3-3-3-3-5-5-5-5--1-1-1-1-3-3-3-------
    D|-------------3-3-3-3-3-5-5-5-5--1-1-1-1-3-3-3-------
    
    REPETE SOLINHO
    
    VERSO
    
    PRE REFRÃO 
    
    REFRÃO
    
    SÓ QUERIA QUE VOCÊ... 4X
    E|------------------------------------------------
    B|------------------------------------------------
    G|------------------------------------------------
    D|--1-1-1-1-1-3-3-3-3-3---------------------------
    A|--1-1-1-1-1-3-3-3-3-3---------------------------
    D|--1-1-1-1-1-3-3-3-3-3---------------------------
     Pm . . . . . . . . . . 
    
    O  teu olhar no meu...                                  
    E|------------------------------------------------
    B|------------------------------------------------
    G|-3-3-3-3-3~-------------------------------------
    D|-3-3-3-3-3~--3-3-3-3-3~-1-1-1-1-1~-3-3-3-3-3----
    A|-1-1-1-1-1~--3-3-3-3-3~-1-1-1-1-1~-3-3-3-3-3----
    D|-------------3-3-3-3-3~-1-1-1-1-1~-3-3-3-3-3----
    
    Eu sou o descarado, come-quieto....
    e|--------------------------------------
    B|--------------------------------------
    G|--------------------------------------
    D|--5-5-5-5-5~-3-3-3-3-3~-1-1-1-1-1~-3~~
    A|--5-5-5-5-5~-3-3-3-3-3~-1-1-1-1-1~-3~~
    D|--5-5-5-5-5~-3-3-3-3-3~-1-1-1-1-1~-3~~
     pm . . . .    . . . .    . . . .
    
    REPETE O REFRÃO 3X E FIM...


    Comente
    user 300 caracteres restantes. Enviar

    Todas as letras de Strike

    Publicidade
    Notícias
    Mais notícias »
    Hot Spot
    Top Músicas do Vagalume
    Top 100 »

    As informações deste site são postadas integralmente pelos usuários. É importante dizer que é possível que os dados estejam desatualizados ou incorretos, sendo assim, o Vagalume exime-se de qualquer responsabilidade sobre as informações publicadas.Caso haja interesse em remover ou alterar alguma informação, entre em contato conosco.


    É permitida somente a visualização no site das letras de músicas encontradas aqui, vedada sua reprodução através de quaisquer outros meios (Lei 9610/98).Todas as letras de músicas são propriedade dos seus respectivos autores e divulgadas somente para fins educacionais.All lyrics are property and copyright of their owners. All lyrics are provided for educational purposes only.