Muito mais que só letras de músicas

  • Vagalume
  • A-Z
  • Estilos
  • Top 100
  • Playlists
  • Hot Spots
  • Notícias
  • PLAY

    Instrumento:
    Intro: 	Guitars 1 and 2 play together 3 times 
    EbI------------------------------------------------------------------12-12-12-- 
    Bb|------------------------------------------------------------------12-12-12-- 
    Gb|------------------------------------------------------------------12-12-12-- 
    Db|----2-2-x-x--x--x--x--x-x-x-----------2-2-x-x--x--x--x---------------------- 
    Ab|----2-2-x-x--x--x--x--x-x-x-----------2-2-x-x--x--x--x---------------------- 
    Eb|----0-0-x-x--x--x--x--x-x-x-----------0-0-x-x--x--x--x---------------------- 
     
     
    Verse Riff: Guitar 1 
    					3x				Last time 
    Eb|---------------------------------------------------------------------------- 
    Bb|---------------------------------------------------------------------------- 
    Gb|-----------9-9--7-7/10--10------------------------------9-9--7-7/12-12-12--- 
    Db|----2-2-x----------------------------------------2-2-x---------------------- 
    Ab|----2-2-x--7-7--5-5/8---8------------------------2-2-x--7-7--5-5/10-10-10--- 
    Eb|----0-0-x----------------------------------------0-0-x---------------------- 
     
     
    Verse Riff: Guitar 2 
    					3x				Last time 
    Eb|---------------------------------------------------------------------------- 
    Bb|---------------------------------------------------------------------------- 
    Gb|-----------------------------------------------------------0-0h3p0-7-------- 
    Db|----2-2-x-x---------------------------------------2-2-x-x----------5-------- 
    Ab|----2-2-x-x---------------------------------------2-2-x-x------------------- 
    Eb|----0-0-x-x---------------------------------------0-0-x-x------------------- 
     
    The guitar part under the vocals is pretty self explanatory, with the second  
    half being the same as the intro... Then... 
     
    Chorus: Guitars 1 and 2. 
    Eb|---------------------------------------------------------------------------- 
    Bb|---------------------------------------------------------------------------- 
    Gb|------------5/7--7--7------------------------------------------------------- 
    Db|----2-x-----5/7--7--7--0---5--5--5--5--------------------------------------- 
    Ab|----2-x-0---3/5--5--5--0---5--5--5--5--------------------------------------- 
    Eb|----0-x-0---3/5--5--5--0---3--3--3--3--------------------------------------- 
     
    Repeat whole process...Then... 
     
    Bridge: Guitars 1 and 2. 
    Eb|---------------------------------------------------------------------------- 
    Bb|---------------------------------------------------------------------------- 
    Gb|---------------------------------------------------------------------------- 
    Db|----2-x-0-7\6--6-6\5--5-5\4-4\3-3\2----------------------------------------- 
    Ab|----2-x-0-5\4--4-4\3--3-3\2-2\1-1\0----------------------------------------- 
    Eb|----0-x-0-5\4--4-4\3--3-3\2-2\1-1\0----------------------------------------- 
     
     
    Bridge: Guitars 1 and 2 - one guitar part has a wah wah effect on it, along  
    with some chorus 
    Eb|---------------------------------------------------------------------------- 
    Bb|---------------------------------------------------------------------------- 
    Gb|-9-9-9-9-9-9-9-9-9-9-9-9-9-9-9-9-9-9-9-9-9-9-9-9-9-9-9-9-9-7-7-7------------ 
    Db|---------------------------------------------------------------------------- 
    Ab|---------------------------------------------------------------------------- 
    Eb|---------------------------------------------------------------------------- 
     
     
    Repeat Chorus twice and end the song this. 
    Eb|---------------------------------------------------------------------------- 
    Bb|---------------------------------------------------------------------------- 
    Gb|---------------------7-5-----------------------7-7-------------------------- 
    Db|---2-2-x-x--x--x--x--7-5---2-2--x--x--x--x--x--7-7-------------------------- 
    Ab|---2-2-x-x--x--x--x--5-3---2-2--x--x--x--x--x--5-5-------------------------- 
    Eb|---0-0-x-x--x--x--x--5-3---0-0--x--x--x--x--x--5-5--------------------------


    Comente
    user 300 caracteres restantes. Enviar

    Todas as letras de Seether

    Publicidade
    Notícias
    Mais notícias »
    Hot Spot
    Top Músicas do Vagalume
    Top 100 »

    As informações deste site são postadas integralmente pelos usuários. É importante dizer que é possível que os dados estejam desatualizados ou incorretos, sendo assim, o Vagalume exime-se de qualquer responsabilidade sobre as informações publicadas.Caso haja interesse em remover ou alterar alguma informação, entre em contato conosco.


    É permitida somente a visualização no site das letras de músicas encontradas aqui, vedada sua reprodução através de quaisquer outros meios (Lei 9610/98).Todas as letras de músicas são propriedade dos seus respectivos autores e divulgadas somente para fins educacionais.All lyrics are property and copyright of their owners. All lyrics are provided for educational purposes only.