Muito mais que só letras de músicas

  • Vagalume
  • A-Z
  • Estilos
  • Top 100
  • Playlists
  • Hot Spots
  • Notícias
  • PLAY

    Instrumento:
    E:||---------------------------------------------||
       B:||---------------------------------------------||
       G:||---------------------------------------------||
       D:||--------4--4--5------------------------------||
       A:||--5--5-----------0------2--0--0--4s5---7--5--||
       E:||--------------------3------------------------||
    
    
    
    Verso:
    
       E:||-------------------------------------------------------------||
       B:||----------7--------------------14-----------------8----------||
       G:||-----7-------7---7------14---------14--------9-------9---9---||
       D:||--7--(7)------7----14----14---------14/--9---9-------9-----||
       A:||-------------------------------------------------------------||
       E:||-------------------------------------------------------------||
    
       E:||-----------------------||
       B:||-------------12--------||
       G:||------12--------12-----||
       D:||--12----12--------12/-||
       A:||-----------------------||
       E:||-----------------------||
    
    
    Verso 1:
    
    D                    A
      Outside there's a box car waiting
    Em             G
      Outside the family stew
    D             A
      Out by the fire breathing
    Em           G
      Outside we wait til face turns blue
    
    Verso 2:
    
    D             A
      I know the nervous walking
    Em            G
      I know the dirty beard hangs
    D             A
      Out by the box car waiting
    Em                G
      Take me away to nowhere plains
    
    Outro:
    
          Bm                       G         A        D
       E-----------------------------------------------------|
       B--12-12-12-12-12-12-12-12--12-(8x)--10-(8x)--15-(9x)-|
       G--11-11-11-11-11-11-11-11--12--------9-------14------|
       D-----------------------------------------------------|
       A-----------------------------------------------------|
       E-----------------------------------------------------|
    
    Bm                    G               A
      There is a wait so long (so long so long)
                          D
      You'll never wait so long
    
    
    Refrão (Tocar junto o Riff de Entrada):
    
    G  A                D 
        Here comes your man [3 times]
    
    [Solo]
    
       E----------------------------------------------------------------|
       B----------------------------------------------------------------|
       G--11--9-------------------------9---11--9----------11-11-9----9-|
       D---------12--12--11--11--11h12-------------12--12----------12---|
       A----------------------------------------------------------------|
       E----------------------------------------------------------------|
    
    Verso 3: (Mesmos acordes dos outros versos)
    
    They shake on the boxcar moving[?]
    They shake to the land that's falling down
    Is a wind makes-a palms start blowing
    A big big storm fall and break my crown
    
    
    Solo 2:
    
       E--------------------------------------------------------------|
       B--15-15-15-17-15-17-15----------------------------------------|
       G--14-14-14-14-14-14-14--14-14-16-14-16-14--12-12-14-12-14-12--|
       D------------------------14-14-14-14-14-14--12-12-12-12-12-12--|
       A--------------------------------------------------------------|
       E--------------------------------------------------------------|
                       (3x)
       E------------------|--------------------------------------------|
       B------------------|--------------------------------------------|
       G--12--12-12-12-12-|--------------------------------------------|
       D--14--14-14-14-14-|--12-12-12--12-12-12-1214-14-14--14-14-14--|
       A------------------|--------------------------------------------|
       E------------------|--------------------------------------------|
    
       E---------------------------------------------|
       B---------------------------------------------|
       G---------------------------------------------|
       D--14/12-12-12--12-12-12-1214-14-14--14-14---|
       A---------------------------------------------|
       E---------------------------------------------|


    Comente
    user 300 caracteres restantes. Enviar

    Todas as letras de Pixies

    Publicidade
    Notícias
    Mais notícias »
    Hot Spot
    Top Músicas do Vagalume
    Top 100 »

    As informações deste site são postadas integralmente pelos usuários. É importante dizer que é possível que os dados estejam desatualizados ou incorretos, sendo assim, o Vagalume exime-se de qualquer responsabilidade sobre as informações publicadas.Caso haja interesse em remover ou alterar alguma informação, entre em contato conosco.


    É permitida somente a visualização no site das letras de músicas encontradas aqui, vedada sua reprodução através de quaisquer outros meios (Lei 9610/98).Todas as letras de músicas são propriedade dos seus respectivos autores e divulgadas somente para fins educacionais.All lyrics are property and copyright of their owners. All lyrics are provided for educational purposes only.