Muito mais que só letras de músicas

  • Vagalume
  • A-Z
  • Estilos
  • Top 100
  • Playlists
  • Hot Spots
  • Notícias
  • PLAY

    Instrumento:
    G 
    Eu fui matando os meus heróis aos poucos 
    C 
    Como se já não tivesse 
    F 
    Nem uma lição pra aprender 
     
    Nesta parte entra a guitarra: G 
     
    Solinho 
     
    e|----6--3----10--6--3---6--3----8--6--3---| 
    b|---------3------------------3------------| 
     
    G 
    Eu sou uma contradição 
           C 
    E foge da minha mão 
                  F 
    Fazer com que tudo que eu digo  
    Faça algum sentido 
    G 
    Eu quis me perder por aí 
             C 
    Fingindo muito bem que eu nunca precisei 
    F 
    De um lugar só meu 
     
    Refrão: 
    G 
    Memórias 
    Não são só memórias 
    Bb 
    São fantasmas que me sopram aos ouvidos 
    A 
    Coisas que eu... 
     
    Passagem: G 
     
     
    Solinho 
     
    e|----6--3----10--6--3---6--3----8--6--3---| 
    b|---------3------------------3------------| 
     
    G 
    Eu dou sempre o melhor de mim 
              C 
    E sei que só assim é que talvez  
       F 
    Se mova alguma coisa ao meu redor 
    G 
    Eu vou despedaçar você 
             C 
    Todas as vezes que eu lembrar  
             F 
    Por onde você já andou sem mim 
     
    Refrão: 
    G 
    Memórias 
    Não são só memórias 
    Bb 
    São fantasmas que me sopram aos ouvidos 
    A 
    Coisas que eu... 
    G 
    Memórias 
    Não são só memórias 
    Bb 
    São fantasmas que me sopram aos ouvidos 
    A                       G 
    Coisas que eu nem quero saber! 
     
    Base do solo: G,G,(Bb,A),G => O (Bb,A) levam o tempo de 1 G. 
                  G,G,Bb,A 
    Solo:
    E|-------------------------------------------------------------
    B|---------------8---------------------------------------------
    G|--12--7-7-5-7--7-----2/3----3/7-----77777777----------
    D|--------------------------------------------------------------
    A|--------------------------------------------------------------
    E|--------------------------------------------------------------
    
    e|---------------------------------------------------------------
    B|---------------8---10--11(12)-----11------11---------------
    G|--12--7--5-7-------------------------10-------10--7~--12~-
    D|--------------------------------------------------------------
    A|--------------------------------------------------------------
    E|--------------------------------------------------------------
    
     
    Só o baixo: G            
     
    G 
    Eu sou uma contradição 
           C 
    E foge da minha mão 
                    F 
    Fazer com que tudo que eu digo  
    Faça algum sentido 
    G 
    Eu quis me perder por aí 
             C                           F 
    Fingindo muito bem que eu nunca precisei 
    De um lugar só meu 
     
    Refrão: 
    G 
    Memórias 
    Não são só memórias 
    Bb 
    São fantasmas que me sopram aos ouvidos 
    A 
    Coisas que eu... 
    G 
    Memórias 
    Não são só memórias 
    Bb 
    São fantasmas que me sopram aos ouvidos 
    A                       G 
    Coisas que eu nem quero saber! 
    *re*


    Comente
    user 300 caracteres restantes. Enviar

    Todas as letras de Pitty

    Publicidade
    Notícias
    Mais notícias »
    Hot Spot
    Top Músicas do Vagalume
    Top 100 »

    As informações deste site são postadas integralmente pelos usuários. É importante dizer que é possível que os dados estejam desatualizados ou incorretos, sendo assim, o Vagalume exime-se de qualquer responsabilidade sobre as informações publicadas.Caso haja interesse em remover ou alterar alguma informação, entre em contato conosco.


    É permitida somente a visualização no site das letras de músicas encontradas aqui, vedada sua reprodução através de quaisquer outros meios (Lei 9610/98).Todas as letras de músicas são propriedade dos seus respectivos autores e divulgadas somente para fins educacionais.All lyrics are property and copyright of their owners. All lyrics are provided for educational purposes only.