Muito mais que só letras de músicas

  • Vagalume
  • A-Z
  • Estilos
  • Top 100
  • Playlists
  • Hot Spots
  • Notícias
  • PLAY

    Instrumento:
    e|------------------------------------------------0---3r2-----------|
    B|--------------3-----------3-----------------3---3-----------3-----|
    G|--------0--4-----------------4--------0--4------2-------2---------|
    D|--2--4-----------2--4--5--------2--4------------0---------0-------|
    A|------------------------------------------------------------------|
    E|------------------------------------------------------------------|
    
    e|------------------------------------------------2--|
    B|--------------3-----------3-----------------3---3--|
    G|--------0--4-----------------4--------0--4------2--|
    D|--2--4-----------2--4--5--------2--4------------0--|
    A|---------------------------------------------------|
    E|---------------------------------------------------|
    
    
    _Verso:
    
    e|--------------------------------7--|---------------------------------|
    B|---------------------------------7-|----------------------10---8-----|
    G|------------------------------7----|--------------------9----9---9---|
    D|-----------12------11-------9------|------------------9------------9-|
    A|-------12-------11--------9--------|----------------7----------------|
    E|---10---------9-------7------------|--------------0------------------|
         As vezes se eu me distraio        Se eu não me vigio um instante 
    
    
    e|------------------------------------------|--------------------------------7--|
    B|-----------10-----------------------------|---------------------------------7-|
    G|-------11-----11--------------------11----|------------------------------7----|
    D|----11---------------------------12----12-|-----------12------11-------9------|
    A|--9---------------------------12----------|-------12-------11--------9--------|
    E|---------------------------10-------------|---10---------9-------7------------|
       Me transporto pra perto de você            Já vi que não posso ficar tão solta
    
    
    e|---------------------------------|----------------------|-----------------------|
    B|----------------------10---8-----|-----------10---------|-----------------------|
    G|--------------------9----9---9---|-------11-----11------|-------12-----------14-|
    D|------------------9------------9-|----11----------------|----12----12-----14----|
    A|----------------7----------------|--9-------------------|-10-----------12-------|
    E|--------------0------------------|----------------------|-----------------------|
      Me vem logo aquele cheiro,    que passa de você pra mim   num fluxo perfeito
    
    
    e|------------------------------------------------3-2-------|
    B|--------------3-----------3-----------------3---3---3-----|
    G|--------0--4-----------------4--------0--4------2-----2---|
    D|--2--4-----------2--4--5--------2--4------------0-------0-|
    A|----------------------------------------------------------|
    E|----------------------------------------------------------|
      Enquanto você conversa e me beija, ao mesmo tempo eu vejo, 
      as suas cores no seu olho tão de perto
    
    e|------------------------------------------------------------------|
    B|--------------3-----------3-----------------3---8----------10-----|
    G|--------0--4-----------------4--------0--4--------7-----7-----9---|
    D|--2--4-----------2--4--5--------2--4-----------------5----------7-|
    A|------------------------------------------------------------------|
    E|------------------------------------------------------------------|
      Me balanço devagar, como quando vc me embala o ritmo rola fácil
      parece que foi ensaiado
    
    _Pré-Refrão:
    
    Bm                      A              G
     E eu acho que eu gosto mesmo de você    Bem do jeito que você é
    
    _Refrão: 
    
    D        Bm      D     Bm  D           Bm                A           G 
      Eu vou equalizar você,   numa freqüência que só a gente sabe
    D            Bm      D          Bm      D       Bm        A         G  
      Eu te transformei nessa canção,  pra poder te gravar em mim
    
    
    _Pós-Refrão:
    
    
    e|------------------------------------------------------------------10-|
    B|-------------------------------------5----5-----5-----5---5--5/7-----|
    G|--------------------------------7------7----7-----7-----7------------|
    D|-----------------------7-7-7-9-----0----0-----0-----0----------------|
    A|--------------5-5-7/9------------*-----------------------------------|
    E|--3--3-3-5/7---------------------------------------------------------|
                                       * Sem distorção
    
    _Verso 2:
    
    e|----------14---17--15--14------------|--14---17--15--14---------|------------------|
    B|---------------------------14----15--|--15---------------14-----|-------12------14-|
    G|---------------------------------14--|--14----------------------|-----12-----------|
    D|-12---11-----------------------------|--------------------------|---12-------14----|
    A|-12---11-----------------------------|--------------------------|-10-------12------|
    E|-10---9------------------------------|--------------------------|------------------|
     Adoro essa sua cara de sono e o timbre| E que quase me mata de rir   | Porque nós dois
     da sua voz que fica me dizendo coisas | quando tenta me convencer| somos iguais
     tão malucas                           | que eu só fiquei aqui    |
    
    
    e|------------------------------------------------3-2-------|
    B|--------------3-----------3-----------------3---3---3-----|
    G|--------0--4-----------------4--------0--4------2-----2---|
    D|--2--4-----------2--4--5--------2--4------------0-------0-|
    A|----------------------------------------------------------|
    E|----------------------------------------------------------|
      Até parece que você já tinha o meu manual de instruções, 
      porque você decifra o meu sonhos
    
    e|--------------------------2---------------------------------------|
    B|--------------3--------------3--------------3---8----------10-----|
    G|--------0--4-----------------4--------0--4--------7-----7-----9---|
    D|--2--4-----------2--4--5--------2--4-----------------5----------7-|
    A|------------------------------------------------------------------|
    E|------------------------------------------------------------------|
      Porque você sabe o que eu gosto, e porque quando você me abraça,
      o mundo gira devagar
    
    
        Em(*)
    e|------------|
    B|--------(**)| (*) Tocar o Mi dessa forma nessa parte
    G|--------(9)-| (**) Tocar várias vezes
    D|--------(9)-|
    A|-7--7-7-(7)-|
    E|-0--0-0-(0)-|
    
     Em                      D                                  Em
       E o tempo é só meu e ninguém registra a cena, 
                                    D                                   Bm
       de repente vira um filme todo em camêra lenta
    
    
    _Pré-Refrão:
    
      Bm                       A              G
       E eu acho que eu gosto mesmo de você    Bem do jeito que você é
    
    
    _Refrão: (2x)
    
    D        Bm       D    Bm   D           Bm         A        G 
      Eu vou equalizar você,   numa freqüência que só a gente sabe
    D            Bm      D          Bm  D       Bm        A      G  
      Eu te transformei nessa canção,  pra poder te gravar em mim
    
    _Último:
    
    e|----------------------------------|----------------------------------|
    B|----------------------------------|----------------------------------|
    G|--------------------------------7-|--------------------------------7-|
    D|-----------------------7-7-7-9----|-----------------------7-7-7-9----|
    A|--------------5-5-7/9-------------|--------------5-5-7/9-------------|
    E|--3--3-3-5/7----------------------|--3--3-3-5/7----------------------|
    
                                                    
    e|------------------------------------------------|
    B|---------------------------------------------15-|
    G|----------------------------------7--7/11-------|
    D|-----------------------7--7--7--9---------------|
    A|--------------5-5-7/9---------------------------|
    E|--3--3-3-5/7------------------------------------|


    Comente
    user 300 caracteres restantes. Enviar

    Todas as letras de Pitty

    Publicidade
    Notícias
    Mais notícias »
    Hot Spot
    Top Músicas do Vagalume
    Top 100 »

    As informações deste site são postadas integralmente pelos usuários. É importante dizer que é possível que os dados estejam desatualizados ou incorretos, sendo assim, o Vagalume exime-se de qualquer responsabilidade sobre as informações publicadas.Caso haja interesse em remover ou alterar alguma informação, entre em contato conosco.


    É permitida somente a visualização no site das letras de músicas encontradas aqui, vedada sua reprodução através de quaisquer outros meios (Lei 9610/98).Todas as letras de músicas são propriedade dos seus respectivos autores e divulgadas somente para fins educacionais.All lyrics are property and copyright of their owners. All lyrics are provided for educational purposes only.