Muito mais que só letras de músicas

  • Vagalume
  • A-Z
  • Estilos
  • Top 100
  • Playlists
  • Hot Spots
  • Notícias
  • PLAY

    Instrumento:
    Guitar I(repete 2 vezes)
    |----------------------|----------------------|
    |----------------------|----------------------|
    |----------------------|----------------------|
    |----------------------|-7-7------------------|
    |-4-4---7-7---2-2-2-2--|-5-5---2-2------------|
    |-2-2---5-5---0-0-4-4--|-------0-0------------|
    2 vezes sem guitar II
    
    Guitar II (Antes, escorregar a palheta pela corda 
    5 e 6 desde os captadores)
    |---------------------------------------------|
    |---------------------------------------------|
    |---------------------------------------------|
    |---------------------------------------------|
    |------4---5---4------2--------2--------------|
    |--2-2---2---2---2-------5-4-5---5-4---0------|
                                   Repetir 3 vezes
    
                               D    E
    |----------------------|---5----7---------------|
    |----------------------|---5----7---------------|
    |----------------------|---7----9---------------|
    |----------------------|---7----9---------------|
    |------4---5---4-------|---5----7---------------|
    |--2-2---2---2---------|------------------------|
    
    -Verse-
    
    Guitar I e II
    
           A    E/A   D/A    A
    |------------------------------------------------|
    |------5-----5-----7-----5-----------------------|
    |------6-----4-----7-----6-----------------------|
    |------7-----6-----7-----7-----------------------|
    |--0-0-0-0-0-0-0-0-0-0-0-0-0-0-0-0-0-------------|
    |------------------------------------------------|
    
    -Letra-
    
    Crazy, but that's how it goes
    Milions of people, living as foes
    Maybe, It´s not to late
    To learn how to love, and forget how to hate
    
    -Bridge-
    
    1. Mental Wounds not healing
        
    |--------------------------------------------|
    |--------------------------------------------|
    |--------------------------------------------|
    |--4---4---4------5-----4-------------------|
    |--4---4---4------7-----6-------------------|
    |--2---0---2------7-----6-------------------|
    
    2. Driving me insane
    
    |--------------------------------------------|
    |--------------------------------------------|
    |--------------------------------------------|
    |--4---4---4------5-------------------------|
    |--4---4---4------7-------------------------|
    |--2---0---2------7-------------------------|
    
    -Chorus-
    
    I´m going of the rails of the crazy train
    
    |-----------------------------------------------|
    |-----------------------------------------------|
    |-----------------------------------------------|
    |-7-7-7-7-7-7-7-6-6-6-6-6-6-6-6-6-4-4-4-4-4-4-4-|
    |-7-7-7-7-7-7-7-6-6-6-6-6-6-6-6-6-4-4-4-4-4-4-4-|
    |-5-5-5-5-5-5-5-4-4-4-4-4-4-4-4-4-2-2-2-2-2-2-2-|
    
     I´m going of the  rails of the crazy  train
    
    |-------------------------------------------------|
    |-------------------------------------------------|
    |-------------------------------------------------|
    |-/-7-7-7-7-7-7-7--6-6-6-6-6-6-6-6-6--4-4-4-------|
    |-/-7-7-7-7-7-7-7--6-6-6-6-6-6-6-6-6--4-4-4-------|
    |-/-5-5-5-5-5-5-5--4-4-4-4-4-4-4-4-4--2-0-2-------|
    
    |------------------------------------5-----7------|
    |------------------------------------5-----7------|
    |------------------------------------7-----9------|
    |--------------------4--4--4---------7-----9------|
    |--------------------4--4--4---------5-----7------|
    |--2-4-5--4-2-0-2-4--2--0--2--2h4-----------------|
    
    -Verse-
    
    -Letra-
    
    I´ve listened to preachers, I´ve listened to fools
    I´ve wachted all the dropouts, who make their own rules
    One person conditioned, to rule and control
    The media sells it, And you live the role
    
    -Bridge-
    
    -Letra-
    
    Mental wounds not healing
    Who and what´s to blame?
    
    -Chorus-
    
    -Intro-
    (Só a guitar I)
    
    -Letra-
    
    I know that things are wrong for me
    You´ve got to listen to my words
    yeeeaaaaah!!!
    
    -Guitar Solo-
    
    |-------------------------------------------------|
    |-14^10^7^14^10^7^14^10^7^14^10^7^14^10^7^14^10^7-|
    |-t--p--p-t--p--p-t-p--p--t--p--p-t--p--p-t--p--p-|
    |-------------------------------------------------|
    |-------------------------------------------------|
    |-------------------------------------------------|
    
    |-------------------------------------------------|
    |-15^10^7^15^10^7^15^10^7^15^10^7^15^10^7^15^10^7-|
    |-t--p--p-t--p--p-t-p--p--t--p--p-t--p--p-t--p--p-|
    |-------------------------------------------------|
    |-------------------------------------------------|
    |-------------------------------------------------|
    
    |-------------------------------------------------|
    |-12^9^12^9^12^9^12^9^12^910^7^10^7^10^7^10^7----|
    |---p-h--p-h--p-h--p-h--p----p-h--p-h--p-h--p-----|
    |-------------------------------------------------|
    |-------------------------------------------------|
    |-------------------------------------------------|
    
    |--------------17-16-14-----14-16-17-17b----------|
    |-----10----------------17b-----------------------|
    |--9b----9r---------------------------------------|
    |-------------------------------------------------|
    |-------------------------------------------------|
    |-------------------------------------------------|
    
    |--14-17p14----14---------------------------------|
    |-----------17----17-14-15p14-15p14-17p14-16p14---|
    |-------------------------------------------------|
    |-------------------------------------------------|
    |-------------------------------------------------|
    |-------------------------------------------------|
    
    |-------------------------------------14h17p14h17-|
    |------------17-----------------14h17-------------|
    |-16p14--16b----16r-16p14-14h16-------------------|
    |-------------------------------------------------|
    |-------------------------------------------------|
    |-------------------------------------------------|
    
    |-17p14h17/16h19p16h19p16h19p16h19p16h19/17h21p17-|
    |-------------------------------------------------|
    |-------------------------------------------------|
    |-------------------------------------------------|
    |-------------------------------------------------|
    |-------------------------------------------------|
    
    |-21p17h21p17h21p17h21p17h21p17h21p17h21p17h21p17-|
    |-------------------------------------------------|
    |-------------------------------------------------|
    |-------------------------------------------------|
    |-------------------------------------------------|
    |-------------------------------------------------|
    
    |-17br--------------------------------------------|
    |-------------------------------------------------|
    |------16-14----14----------14--------------------|
    |------------16----16-14-------16-14--------------|
    |------------------------16----------16-----------|
    |-------------------------------------------------|
    
    |-------------------------------------------------|
    |-------------------------------------------------|
    |-14-13h14p13-16-14p13----16-------------14-16/18-|
    |----------------------16----------14-16----------|
    |----------------------------14-16----------------|
    |-------------------------------------------------|
    
    |-----14-17p16p14--19p17-19p17-19b-19b------------|
    |--17---------------------------------------------|
    |-------------------------------------------------|
    |-------------------------------------------------|
    |-------------------------------------------------|
    |-------------------------------------------------|
    
    p:pull off
    h:hammer on
    b:bend
    r:realese
    t:tap(finger move)
    /:slide
    
    -Intro-
    (Guitar I e II começam juntas)
    
    -Verse-
    
    -Letra-
    Heirs or a cold war, that´s what we´ve become
    Tnheriting troubles, I´m mentally numb
    Crazy, But what do I care?
    I´m living with something, I don´t want to share
    
    -Bridge-
    
    -Chorus-
    
    -Outro-
    (Intro-Guitar I)
    
    Tablatura transcrita por
    Renato perussi Sobrinho
    Qualquer erro ou sugestão enviar a
    
    
    Contribuição: Renato Sobrinho(perussisobrinho@terra.com.br)
    Correção: Gustavo (gustavoschardong@terra.com.br)
    Correção: Gabriel Henrique de Almeida (bilhenri@terra.com.br)
    
    Versão 2:
    	       Crazy Train
    	       de 
                   Ozzy Osbourne	
                   para o album
                   Tribute 
    ESSA MUSICA É MUITO TRABALHOSA, SE APEGUE AOS DETALHES E OUÇA ELA MUITAS VEZES, BOM TRABALHO!!!
    
    -INTRO-
    |----Riff-A------------------------------------------
    F#5
    ----------------------------------------------------|
    ----------------------------------------------3---5-|
    -11--11----2--2--------------------11-------2---4-|
    -11--11----2--2--------2--2--------11-------0---2-|
    -9---9-----0--0--------2--2--------9--------------|
    ------------------4--2--0--0--4^0-------------------|
    				p          
    ----Riff-A-(cont.)-----------------------------------------------------------|
           b:1               b:1 b:1 b:1 b:1 b:1 b:1
       ^^^^^^^^^^^^^          ^   ^   ^   ^   ^   ^      ^^^^^^^^^^^^
    --^-----------12--------(18)(18)(18)(18)(18)(18)----^-------------------------
    -12----------------------10--10--10--10--10--10-----4-------------------------
    -----------------------------pick harmonics------------------------0----/----
    -----------------------------------------------------------------------/-----
    ----------------------------------------------------------------------/------
    -------------------------------------------------------------------trem. bar--
    
    |----Riff-B--------------------------- 
    
    --------------------------------------|
    --------------------------------------|
    --------------------------------------|
    --------------------------------------|
    ------4---5---4------2-0---0-2--------|
    --2-2---2---2---2--------4-----4-2-0--|
    	  3X
    -Riff-B-(cont.)-----------------------|
    			D        E        A               E/A
    --------------------|---2-------------|------------------------------|
    --------------------|---3--------0----|----------5-------5-----------|
    --------------------|---2--------1----|----------6-------4-----------|
    --------------------|---0--------2----|----------7-------6-----------|
    ---------4---5---4--|------------2----|--0---0-0---0-0-0----0--0-0--0|
    ---2--2----2---2----|------------0----|------------------------------|
    		       
    
       D/A      A                             E/A        D/A     A
    --(5)-------------------|-----------------(7)-------|(5)-------------------|
    ---3--------2-----------|------5-----------5--------|-3------2---^---------|
    ---2--------2---------2-|------6-----------4--------|-2------2--420--^-----|
    ---4--------2---------3-|------7-----------6--------|-4------2------420---^|
    ----0-0-0-0-0---3/4-----|0-0-0---0--0--0-0---0-0-0-0|--0-0-0-0-----------42|
    ----------------sl------|---------------------------|------------pp--pp---p|
    
    
    
    Crazy                   But thats how it goes
    A    E/D    D/A   A             E/A  D/A   A
    
    Millions of people      living as foes
         E/A    D/A   A             E/A   D/A   A
    
    Maybe                   Its not too late
         E/A    D/A   A             E/A   D/A     A
    
    To learn how to love     and forget how to hate
         E/A    D/A   A             E/A   D   A
    
       Mental Wounds not  healing      Driving   me   insane 
       F#5                D5           F#m               D5
    1------------X(5)--X------------------------X(5)--X---------------------------
    2------------X(5)--X------------------------X(5)--X---------------------------
    3------------X(5)--X--7----7----------------X(5)--X---7----7------------------
    4--4-----4---X(5)--X--7----7------4-----4---X(5)--X---7----7------------------
    5--4-----4------------5----5------4-----4-------------5----5------------------
    6--2--0--2------------------------2--0--2-------------------------------------
    
    I'm going off the rails on a crazy train
        A5           E                  F#m
    1-----------------------------------------------------------------------------
    2-----------------------------------------------------------------------------
    3---2--2-2--------------------------------------------------------------------
    4---2--2-2-------2----2-----2--------4---X---4---X---4------------------------
    5---0--0-0-------2----2-----2--------4---X---4---X---4------------------------
    6------------4-2-0----0-----0--------2---X---2---X---2------------------------
    
    Im going of the rails on a crazy train
       A5           E                 F#5         A   E5   F#5       D5   E5(II)
    1-----------------------------------------------------------------------------
    2-----------------------------------------------------------------------------
    3---2--2-2------------------------------------2-------------------7----9------
    4---2--2-2-------2----2-----2------4-----4----2---2----4-----4----7----9------
    5---0--0-0-------2----2-----2------4-----4----0---2----4-----4----5----7------
    6------------4-2-0----0-----0------2--0--2--------0----2--0--2----------------
    
    
    I've listened to preachers    I've listened to fools
    A        E/A     D/A   A           E/A    D/A     A
    
    I've watched all the dropouts      who make their own rules
    	 E/A     D/A   A           E/A    D/A     A
    
    One person conditioned       to rule and control
    	 E/A     D/A   A           E/A    D/A     A
    
    The media sells it           and you live the role
    	 E/A     D/A   A           E/A    D/A     A
    
    Mental wounds not healing
     F#5               D5
    
    Who and what's to blame?
    F#5               D5           
    
    I'm going off the rails on a crazy train
     A5              E                   F#5
    
    I'm going of the rails on a crazy train
     A5              E                   F#5     A5  E5  F#5   D5  E5
    
    
    -PONTE-
    I know that things are going wrong for me
    F#5      A5       E5          F#5       D5     E5
    ------------------------------------------------------------------------------
    ----------------------------------------3------5------------------------------
    11--11---2--2-----------------11--11----2------4------------------------------
    11--11---2--2-----2--2--------11--11----0------2------------------------------
    9---9----0--0-----2--2--------9---9-------------------------------------------
    --------------4-2-0--0--4^0---------------------------------------------------
    			 p 
    
    You gotta listen to my words, yeaaaaaah!
    F#5       A5     E5    F#5    D5   E5
    
    
    -SOLO-
    ------------------------------------------------------------------------------
    -14^10^7^10^14^10^7^10^14^10^7^10^14^10^7^10^14^10^7^10^15^10^7^10^15^10^7^10^
    ------------------------------------------------------------------------------
    -t--p--p--h--t-p--p--h--t-p--p--h--t-p--p--h--t-p--p--h--t-p--p--h--t-p--p--h-
    ------------------------------------------------------------------------------
    ------------------------------------------------------------------------------
    							^
    						      ^b:1^
    -----------------------------------------------------^------^-----------------
    ^15^10^7^10--9^12^9^12^9^12^9^12^97^10^7^10^7^10^7--|--10--|-----------------
    ---------------------------------sl.-----------------9------9-----------------
    --t-p--p--h-----h-p--h-p--h-p--h-p----h-p--h-p--h-p---------------------------
    ------------------------------------------------------------------------------
    ------------------------------------------------------------------------------
    	     b:1                b:1
    	      ^                  ^
    -17--16--14---|-----14--16--17--17------14--17^14-------14--------------------
    -------------17--------------------------------p---17------17--14--15^14-15^14
    ----------------------------------------------------------------------------p-
    ------------------------------------------------------------------------------
    ------------------------------------------------------------------------------
    ------------------------------------------------------------------------------
    			     ^
    			   ^b:1^
    -------------------------^-------^-----------------------14^17^14^17^14^17^14/
    -------------------------|--17---|-----------------14^17----h---p--h--p-h--p--
    17^14--16^14------------16------16^14--------14^16----h-----------------------
    ---p------p----16^14---------------p------------h-----------------------------
    ------------------p-----------------------------------------------------------
    ------------------------------------------------------------------------------
    
    
    /16^19^16/17^21^17^21^17^21^17^21^17^21^1716^19^16^19^16^19^1614^17^14^17^--
    sl---h-p sl-------------------------------------------------------------------
    ------------------------------------------------------------------------------
    ------------------------------------------------------------------------------
    ------------------------------------------------------------------------------
    ------------------------------------------------------------------------------
    		^
    	      ^b:1^                           
    ^14^17^14---^--17---^---------------------------------------------------------
    -----------17------17-----17--14----------------------------------------------
    -----------------------------------16--14------14--------------14-------------
    -------------------------------------------16------16--14----------16--14-----
    -----------------------------------------------------------16--------------16-
    ------------------------------------------------------------------------------
    
    
    ------------------------------------------------------------14--17^16^14------
    ---------------------------------------------------------17-------------------
    14--13^14^13----16-14^13-------16---------------14-16/18----------------------
    --------h--p-----------p----16------------14-16------sl-----------------------
    -------------------------------------14-16------------------------------------
    ------------------------------------------------------------------------------
    	       b:1   b:1
    		^     ^
    19^17--19^17---19----19----|
    ----p------p---------------|
    ---------------------------|             toca riff B
    ---------------------------|
    ---------------------------|
    ---------------------------|
    
    
    Heirs or a cold war,      that's what we've become            
    A      E/A    D/A   A                E/A D/A    A
    		      
    Inheriting troubles         I'm mentally numb
           E/A    D/A   A                E/A   D/A   A
    
    Crazy,                     but what do I care?
           E/A  D/A  A                   E/A   D/A   A
    
    I'm living with something   I don't want to share
           E/A  D/A  A                   E/A   D/A   A
    
    Mental wounds not healing
      F#5               D5
    
    Driving me insane     
    F#5           D5             
    
    I'm going off the rails on a crazy train
    A5                E                F#5
    
    I'm going off the rails on a crazy train
    A5                E                F#5
    
    -OUTRO-
    Toca Riff A
    
    
    
    ^ = Pull-off ou Hammer-on
     = Slide (a baixo)
    
    e--------------------|----------------------|
    b--------------------|----------------------|
    g--11---11---11-----|--2-------------------|  Repete 4X
    D--11---11---11-----|--2--------2--2-------|
    A--9----9-----9-----|--0--------2--2-------|
    E--------------------|-----4--2--0--0--4^0--|
    
    [F#5                 |   D5       E5        ]
    [F#5                 |   A5       E5        ]
    [F#5                 |   D5       E5        ]
    
    Riff:
                                         
    e------------------|------------------|
    b------------------|------------------|
    g------------------|------------------|  Repete 4 X
    D------------------|------------------|
    A------4---5---4---|-2-------2--------|
    E--2-2---2---2---2-|---5-4-5---5-4-0--|
    
    
    
    acordes tablatura
    
    (F#m)               (D)       (E)
    
    e------------------|(2)--------0-----|
    b------------------|-3---------0-----|
    g------------------|-2---------1-----|
    D------------------|-0---------2-----|
    A------4---5---4-2-|-----------2-----|
    E--2-2---2---2-----|-----------0-----|
    
    
          (A)   (E/A)     (D/A)  (A)
    
    e------------7-----|-------------------|
    b------4-----5-----|--3-------2--------|
    g------5-----4-----|--2-------2------2-|
    D------7-----6-----|--4-------2------2-|
    A--0-0---0-9---0-0-|----------0--2^4---|
    E------------------|----2-4------------|
    
    
           (A)     (E/A)   (D/A) (A)
    
    e---------------------|----------------------------|
    b-------2-------5-----|-3-----2--------------------|
    g-------2-------4-----|-2-----2--4^2^0-------------|
    D-------2-------6-----|-4-----2--------4^2^0-------|
    A--0-0----0-0-0---0-0-|-------0--------------4^2^0-|
    E---------------------|---2-4----------------------|
    
    
    ("Crazy...")
    
          (A)   (E/A)   (D/A)   (A)
    
    e------------7-----|-5--------------|
    b------5-----5-----|-3-------2------|
    g------6-----4-----|-2--2----2------|
    D------7-----6-----|-4--2----2------|
    A--0-0---0-0---0-0-|----2^4--0---0--|
    E------------------|----------------|
    
    
    e-------------7-----|---------------|
    b-------2-----5-----|-5------2------|
    g-------2-----4-----|-3------2--6^^-|
    D-------2-----6-----|-2------2------|
    A--0-0----0-0---0-0-|-4--0-0-0----2-|
    E-------------------|---------------|
    
    Contr. (gideontecnico@hotmail.com)
    
    
    ("Metal Wounds, not healing...")
    
                        [harmonicos]
    e---------------|------------5-|
    b---------------|----------5---|
    g-------------7-|-7------5-----|
    D--4---4------7-|-7----5-------|
    A--4---4------5-|-5--5---------|
    E--2-0-2--2-0---|--------------|
    
    
    ("I'm going off the rails of this crazy train...")
    
      (A)      (E5)             
    e--------------|----------|
    b------------5-|-5--------|
    g--2---------4-|-4--------|
    D--2---------2-|-2--------|
    A--0-----------|----------|
    E--------4-2-0-|-0--------|
    
    (...train"
    
    (F#m)
    
    e------2-----------------------|-----------------------------|
    b----2--5^2-3^2---2------------|-----------------------------|
    g--4^-----------5---5^2-4^2----|-----------------------------|
    D---------------------------4^2|-4^2-------------------------|
    A------------------------------|-----4^3^2^3^2---2^3^2^3^2---|
    E------------------------------|---------------5-----------5-|
    Tempo=138      
    
           X        = CORDA ABAFADA
           -------  = CORDA    
                   = slide  ABAIXO
           /        = slide ACIMA
           I ou |   = bars (são aquelas harmonicas/gritos)
           h        = hammer-on 
           pp       = pull-off
           t        = taping mão direita(pick hand)
           b        = bend


    Comente
    user 300 caracteres restantes. Enviar

    Todas as letras de Ozzy Osbourne

    Publicidade
    Notícias
    Mais notícias »
    Hot Spot
    Top Músicas do Vagalume
    Top 100 »

    As informações deste site são postadas integralmente pelos usuários. É importante dizer que é possível que os dados estejam desatualizados ou incorretos, sendo assim, o Vagalume exime-se de qualquer responsabilidade sobre as informações publicadas.Caso haja interesse em remover ou alterar alguma informação, entre em contato conosco.


    É permitida somente a visualização no site das letras de músicas encontradas aqui, vedada sua reprodução através de quaisquer outros meios (Lei 9610/98).Todas as letras de músicas são propriedade dos seus respectivos autores e divulgadas somente para fins educacionais.All lyrics are property and copyright of their owners. All lyrics are provided for educational purposes only.