Muito mais que só letras de músicas

  • Vagalume
  • A-Z
  • Estilos
  • Top 100
  • Playlists
  • Hot Spots
  • Notícias
  • PLAY

    Instrumento:
    D                   C          G  
    Eu acredito em Deus  e que Seu Filho Jesus Ele nos deu
    D                            C       G
    Pra morrer naquela cruz sem glória e luz
    D                               C               G
    Mas acredito que ao terceiro dia aquela tumba estava vazia
    
    Bb
    Porque a cruz não O segurou
    A
    Porque a morte não O segurou
    G
    E nem o inferno O segurou
    D    C D Bb                  G         F  
    Ele vive com toda Sua Glória e o Seu poder  (2x)
    
    D                      
    eu não acredito em um Jesus distante
    C                     G        
    eu não acredito em um Jesus inoperante
    D                             C             G
    eu conheço um Jesus amigo que sempre está comigo
    D                            C                 G
    eu acredito também na bíblia são palavras do Autor da vida.
    
    ____________________________________________________________________
    
    Tablatura
    -=======-
    
    E|-----------------------------------------------------------------
    A|-----------------------------------------------------------------
    D|---5---7-7--7-7-77----9-9-9-9-9-9---1-1-1-1-1-1------------------
    G|-----------------------------------------------------------------
    B|---3----5-5--5-5-5-5--7-7-7-7-7-7----9-9-9-----------------------
    e|-----------------------------------------------------------------
    
    E|-----------------------------------------------------------------
    A|-----------------------------------------------------------------
    D|---5---7-7-7-7-7-7----9--9-7--9-9-5-7-1-1-1-1--------------------
    G|-----------------------------------------------------------------
    B|----3---5-5-5-5-5-5-7--7-5-7-7-3-5-9-9---------------------------
    e|-----------------------------------------------------------------
    
    E|-----------------------------------------------------------------
    A|-----------------------------------------------------------------
    D|----5--7-7-7-7-7-7----9-9-9-9-9-9----1-1-1-1-1-------------------
    G|-----------------------------------------------------------------
    B|-----3--5-5-5-5-5-5-7--7-7-7-7-7--9-9-9--------------------------
    e|-----------------------------------------------------------------
    
    E|-----------------------------------------------------------------      
    A|-----------------------------------------------------------2-----      
    D|---5-4-4-4-4-4-4-2----------------------------------------------- 
    G|-----------------------------------------------------------7-----
    B|---3-2-2--3--2-2-0-------------------------3--5--3---------5-----
    e|-------------------------------------------1--3--1---------------


    Comente
    user 300 caracteres restantes. Enviar

    Todas as letras de Oficina G3

    Publicidade
    Notícias
    Mais notícias »
    Hot Spot
    Top Músicas do Vagalume
    Top 100 »

    As informações deste site são postadas integralmente pelos usuários. É importante dizer que é possível que os dados estejam desatualizados ou incorretos, sendo assim, o Vagalume exime-se de qualquer responsabilidade sobre as informações publicadas.Caso haja interesse em remover ou alterar alguma informação, entre em contato conosco.


    É permitida somente a visualização no site das letras de músicas encontradas aqui, vedada sua reprodução através de quaisquer outros meios (Lei 9610/98).Todas as letras de músicas são propriedade dos seus respectivos autores e divulgadas somente para fins educacionais.All lyrics are property and copyright of their owners. All lyrics are provided for educational purposes only.