Muito mais que só letras de músicas

  • Vagalume
  • A-Z
  • Estilos
  • Top 100
  • Playlists
  • Hot Spots
  • Notícias
  • PLAY

    Instrumento:
    *----- =harmonic
    ~ =trill(quick repeated hammer on and pull off)
    
    intro:
    sitar solo then play C chord
    
    verse & chorus:
          D           A
    e-----------------------------------
    B--------7-------------------------
    G--------7-------------------------
    D--------7---------------------7--
    A---5---5----------------7-------
    E--------------5--5--5------------
    
    every once in a while, tom throws in harmonics:
            *-------------------
    e----12-------------------
    B--------12---------------
    G-------------12----------
    D------------------(12)---
    A--------------------------
    E--------------------------
    
           |-----3-------|-----3---------|
    e------2---3---5----3----2---x--
    B-----2----3---5---3----2---3--
    G-----------------------------0--
    D---------------------------------
    A---------------------------------
    E----------------------------------
    in a plastic world of make-believe
    
    solo (the verse/chorus is repeated in backround):
        |---3----|
    e--------------5---------5--5----------5--5-------------------------
    B------7--8----------7-------------7---------8--7--5--------7-----
    G---7-------------7-------------7------------------------7----------
    D--------------------------------------------------------------------
    A--------------------------------------------------------------------
    E--------------------------------------------------------------------
    
        |----3----|                       [  -----------x2---------]
    e-5--7--8--7--5----5---------|---------5----------------|--------------------------------------------5--7--8--10--12--|
    B-----------------8----7--5---|--7--8------8--7--5-----|----------------------------------5--7--8----------------------|
    G------------------------------|----------------------7--|---5~4------4--5----4--5--7----------------------------------|
    D------------------------------|-------------------------|----------7--------7--------------------------------------------|
    A------------------------------|--------------------------|----------------------------------------------------------------|
    E------------------------------|--------------------------|----------------------------------------------------------------|


    Comente
    user 300 caracteres restantes. Enviar

    Todas as letras de No Doubt

    Publicidade
    Notícias
    Mais notícias »
    Hot Spot
    Top Músicas do Vagalume
    Top 100 »

    As informações deste site são postadas integralmente pelos usuários. É importante dizer que é possível que os dados estejam desatualizados ou incorretos, sendo assim, o Vagalume exime-se de qualquer responsabilidade sobre as informações publicadas.Caso haja interesse em remover ou alterar alguma informação, entre em contato conosco.


    É permitida somente a visualização no site das letras de músicas encontradas aqui, vedada sua reprodução através de quaisquer outros meios (Lei 9610/98).Todas as letras de músicas são propriedade dos seus respectivos autores e divulgadas somente para fins educacionais.All lyrics are property and copyright of their owners. All lyrics are provided for educational purposes only.