Muito mais que só letras de músicas

  • Vagalume
  • A-Z
  • Estilos
  • Top 100
  • Playlists
  • Hot Spots
  • Notícias
  • PLAY

    Instrumento:
    Am            D                            G#o (x2x134)
    Vento solar estrelas do mar 
             G      G#o          Am                                 
    A terra azul da cor do seu vestido
    riff1 (só na 1ª vez)
    Am              D
    Vento solar e estrelas do mar
         G      E            Am 
    Você ainda quer morar comigo?
    riff2 (só na 1ª vez)
    
    F        A#(riff3)      Am     E           
    Se eu cantar, não chore não, é só poesia 
    F        A#(riff3)  Am     E        
    Eu só preciso ter você por mais um dia 
    F     A#(riff3)   Am      E         F         Dm (riff4)
    Ainda gosto de dançar bom dia, como vai você? 
    
    solo1
    
    Am                  D
    Sol girassol, verde vento solar 
         G     G#o          Am
    Você ainda quer morar comigo?
    Am              D        
    Vento solar e estrelas do mar 
            G      E            Am
    Um girassol da cor de seu cabelo 
    F       A#(riff3)       Am
    Se eu morrer, não chore não 
      E         F        A#(riff3)   Am
    É só a lua, é seu vestido cor de mar 
      E         F      A#(riff3)   Am    E
    É filha nua, ainda moro nesta mesma rua 
         F     Dm (riff4)
    Como vai você? 
    F    Dm (riff4)         A#           Am
    Você vem, ou será que é tarde demais?    
    
    (no final é feito um slide "infinito"  G|----7/---|) 
    solo2
    
    
    riff1
    e|------------------|
    B|------------------|
    G|---9/14-14/1614--|
    D|------------------|
    A|------------------|
    E|------------------|
    
    riff2
    e|------------------------------------------------------
    B|------------------------------------------------------
    G|-9/14--17-19-21-19-17-14--19/21-19/21-19-17-16---7/14-
    D|------------------------------------------------------
    A|------------------------------------------------------
    E|------------------------------------------------------
    
    riff3
    e|-------------------|
    B|-------------------|
    G|-17-17-17-17/1917-|
    D|-------------------|
    A|-------------------|
    E|-------------------|
    
    riff4
    e|-----------|
    B|-----------|
    G|---1910---|
    D|-----------|
    A|-----------|
    E|-----------|
    
    solo1
    e|------------------------------------------------------
    B|------------------------------------------------------
    G|-9/14--17-19-21-19-17-14--19/21-19/21-19-17-16--------
    D|------------------------------------------------------
    A|------------------------------------------------------
    E|------------------------------------------------------
    
    e|------------------------------------------------------
    B|------------------------------------------------------
    G|--7/14-17-19-21-19-17-14--19/21-19/21-19-17-16---7/14-
    D|------------------------------------------------------
    A|------------------------------------------------------
    E|------------------------------------------------------
    
    
    
    solo2
    e|-----------------------------------------------------------------  
    B|-----------------------------------------------------------------   | 
    G|-9/14--14/16-14---14-14-16-14-16---7/14-17-19-21-19-17-14/1614--    |
    D|-----------------------------------------------------------------   |
    A|-----------------------------------------------------------------   |
    E|-----------------------------------------------------------------   |
                                                                           > Carlos Stein
    e|---------------------------|                                        |
    B|-------20-20--20-22-22-22--|                                        |
    G|-19-21---------------------|                                        |
    D|---------------------------|                                        |  
    A|---------------------------|                                        | 
    E|---------------------------|                                       /     bem rápido  
                                                                   ___________/____________
                                                                  /                         
    e|-----------------------------------------|-7---8-7------4---4-5-5-5/7-5-7-7/8-10-12-12-  
    B|-----------------------------------------|---8-----8--5---5----------------------------  |
    G|---5-4-------------------------5-7/9-5-7-|---------------------------------------------  |
    D|-7-----7-------------------5-7-----------|---------------------------------------------  |
    A|----------7--5---3-5-3-5/7---------------|---------------------------------------------  |
    E|-----------------------------------------|---------------------------------------------  |  V
                                                                                               |  e
            4X                                                                                  > c
    e|-12-------|-------------------------------------------------------------                 |  o
    B|----13----|-13-13/15-15/17-18-19----------------9-9--9/10-10/12-12/13---                 |
    G|-------14-|-------------------------7h9-7-------------------------------                 |
    D|----------|-------------------------------9-8/9-------------------------                 |
    A|----------|-------------------------------------------------------------                 |
    E|----------|-------------------------------------------------------------                 /


    Comente
    user 300 caracteres restantes. Enviar

    Todas as letras de Nenhum de Nós

    Publicidade
    Notícias
    Mais notícias »
    Hot Spot
    Top Músicas do Vagalume
    Top 100 »

    As informações deste site são postadas integralmente pelos usuários. É importante dizer que é possível que os dados estejam desatualizados ou incorretos, sendo assim, o Vagalume exime-se de qualquer responsabilidade sobre as informações publicadas.Caso haja interesse em remover ou alterar alguma informação, entre em contato conosco.


    É permitida somente a visualização no site das letras de músicas encontradas aqui, vedada sua reprodução através de quaisquer outros meios (Lei 9610/98).Todas as letras de músicas são propriedade dos seus respectivos autores e divulgadas somente para fins educacionais.All lyrics are property and copyright of their owners. All lyrics are provided for educational purposes only.