Muito mais que só letras de músicas

  • Vagalume
  • A-Z
  • Estilos
  • Top 100
  • Playlists
  • Hot Spots
  • Notícias
  • PLAY

    Instrumento:
    - |/ ReGGaE |/ -
    
           	          
    Intro:(2x)
    e|------------------------------------------------------------------------------------
    b|------------------------------------------------------------------------------------
    g|------------------------------------------------------------------------------------
    d|------------2-------------------2---------------------------------------------------
    a|------2-4-4-----2--------2-4-4---2-------4-2---------------------4-2---------------2
    E|--4-4---------4------4-4------------4--4-----4-3-2-2-2--2-4-4--4------4-3-2-2-2--2--
    
    
    
    C#m		G#m	   F#m		B7
    Preciso demonstrar pra ela que mereço seu tempo pra dizer
    C#m		G#m	   F#m		B7
    Um pouco das ideias novas e os lugares onde viagei
    C#m	     G#m		   F#m			   B7
    Se ela botar fé na minha história que é de rocha e vem do coração
    C#m	       G#m	   F#m		B7
    Vou estender o pano mais bonito feito na ilha de Madagascar
    C#m		G#m	        F#m			B7
    Um Bob, um Djavan, um Jimmy na viola, humildade de quem sabe onde quer chegar 
    C#m	   G#m		   F#m			   B7
    Reparei a flor no seu vestido só guerreiro de aura boa pode merecer
    C#m	G#m		   F#m		B7	     C#m  G#m
    E ela parou, olhou, sorriu, me deu um beijo e foi embora
        F#m			 B7                 C#m         G#m  F#m B7
    Não vi mais a gata mais tenho a minha gaita pra me consolar
    
    
    C#m  G#m   F#m	    B7
      Andei    só pela noite
    C#m	  G#m		           F#m	  B7
    Cantei um Reggae pros cachorros na rua
    C#m  G#m  F#m      B7
      Andei   só pela noite
    C#m	   G#m		   F#m		B7
    Cantei um verso daquele velho samba pra lua
    C#m  G#m F#m	    B7
      Andei  só pela noite
    
    
    Intro (baixo {ou violão} + o solo na gaita)
    
    C#m		G#m	   F#m		B7
    Preciso demonstrar pra ela que mereço seu tempo pra dizer
    C#m		G#m	   F#m		B7
    Um pouco das ideias novas e os lugares onde viagei
    C#m	     G#m		   F#m			   B7
    Se ela botar fé na minha história que é louca mas não é besteira não
    C#m	       G#m	   F#m		B7
    Vou estender o pano mais bonito feito na ilha de Madagascar
    C#m		G#m	        F#m			B7
    Um Bob, um Djavan, um Jimmy na viola, humildade de quem sabe onde quer chegar 
    C#m	   G#m		   F#m			   B7
    Reparei a flor no seu vestido só guerreiro de aura boa pode merecer
    C#m	G#m		   F#m		B7	     C#m  G#m
    E ela parou, olhou, sorriu, me deu um beijo e foi embora
        F#m			 B7                 C#m         G#m  F#m B7
    Não vi mais a gata mas tenho a minha gaita pra me consolar
    
    
    C#m  G#m   F#m	    B7
      Andei    só pela noite
    C#m	  G#m		           F#m	  B7
    Cantei um Reggae pros cachorros na rua
    C#m  G#m  F#m      B7
      Andei   só pela noite
    C#m	   G#m		   F#m		B7
    Cantei um verso daquele velho samba pra lua
    C#m  G#m F#m	    B7
      Andei  só pela noite
    C#m  G#m 	      F#m	B7
    Tudo bem, a vida continua
    C#m  G#m F#m	    B7
      Andei  só pela noite
    
    Contribuição: Max Yamatogue Fagundes(max.fagundes@bol.com.br)
    
    
    
    Versão 2:
    
    Intro:2x
    	   C#m     B
    e|-------------------|
    B|-------------------|
    G|-------------------|
    D|-------------2-----|2x
    A|----0-2--4-4---4-2-|
    E|--4----------------|
    	     F#m       G#m
    e|------------------------|
    B|------------------------|
    G|------------------------|
    D|------------------------|2x
    A|-0-4-2------------------|
    E|-------4-0-2-2-2-2-0-4--|
    	   C#m     B
    e|-------------------|
    B|-------------------|
    G|-------------------|
    D|-------------2-----|2x
    A|----0-2--4-4---4-2-|
    E|--4----------------|
    	     F#m       G#m	      F#m       B
    e|------------------------|-----------------------|
    B|------------------------|-----------------------|
    G|------------------------|-----------------------|
    D|------------------------|-----------------------|
    A|-0-4-2------------------|-0-4-2---------------2-|
    E|-------4-0-2-2-2-2-0-4--|-------4-0-2-2-2-2-0---|
    
    
    
    C#m	       B	   F#m		B7
    Preciso demonstrar pra ela que mereço seu tempo pra dizer
    C#m	       B	   F#m		B7
    Um pouco das ideias novas e os lugares onde viagei
    C#m	    B		   F#m			   B7
    Se ela botar fé na minha história que é de rocha e vem do coração
    C#m	       B	   F#m		B7
    Vou estender o pano mais bonito feito na ilha de Madagascar
    C#m	      B	                F#m			B7
    Um Bob, um Djavan, um Jimmy na viola, humildade de quem sabe onde quer chegar 
    C#m	    B		   F#m			   B7
    Reparei a flor no seu vestido só guerreiro de hora boa pode merecer
    C#m	 B		   F#m		B7	     C#m
    E ela parou, olhou, sorriu, me deu um beijo e foi embora
    F#m			 B7
    Não vi mais a gata mais tenho a minha gaita pra me consolar
    
    
    	C#m B	   F#m	    B7
    	Andei meio só pela noite
    	C#m	   B		           F#m	  B7
    	Cantei um Reggae pros cachorros na rua
    	C#m B	   F#m      B7
    	Andei meio só pela noite
    	C#m	   B		   F#m		B7
    	Cantei um verso daquele velho samba pra lua
    	C#m B	   F#m	    B7
    	Andei meio só pela noite
    
    
    Intro
    
    C#m	       B	   F#m		B7
    Preciso demonstrar pra ela que mereço seu tempo pra dizer
    C#m	       B	   F#m		B7
    Um pouco das ideias novas e os lugares onde viagei
    C#m	B		   F#m			   B7
    Se ela botar fé na minha história que é de louca mas não é besteira não
    C#m		B	   F#m		B7
    Vou estender o pano mais bonito feito na ilha de Madagascar
    C#m		B	        F#m			B7
    Um Bob, um Djavan, um Jimmy na viola, humildade de quem sabe onde quer chegar 
    C#m	   B		   F#m			   B7
    Reparei a flor no seu vestido só guerreiro de hora boa pode merecer
    C#m	  B		   F#m		B7	     C#m
    E ela parou, olhou, sorriu, me deu um beijo e foi embora
    F#m			 B7
    Não vi mais a gata mais tenho a minha gaita pra me consolar
    
    
    	C#m B F#m      B7
    	Andei só pela noite
    	C#m	   B		           F#m	  B7
    	Cantei um Reggae pros cachorros na rua
    	C#m B F#m      B7
    	Andei só pela noite
    	C#m	   B		   F#m		B7
    	Cantei um verso daquele velho samba pra lua
    	C#m B F#m      B7
    	Andei só pela noite
    	C#m   B			F#m	B7
    	Tudo bem, a vida continua
    	C#m B F#m      B7
    	Andei só pela noite
    
    
    Intro
    
    
    
    
    
    
    versão 3:
    
    Intro:(1ºparte)
    e|-------------------|-------------------|---------------------|-----------------------
    b|-------------------|-------------------|---------------------|-----------------------
    g|-------------------|-------------------|---------------------|-----------------------
    d|------------2------|------------2------|---------------------|-----------------------
    a|------2-2-4-----2--|------2-2-4-----2--|---4-2---------------|-4-2-------------------
    E|--4-4---------4----|--4-4---------4----|-4-----4-3-2-2-2-0-4-|----4-3-2-2-2-0-4------
    
    (2ºparte)
    
    e|-------------------|-------------------|---------------------|-----------------------
    b|-------------------|-------------------|---------------------|-----------------------
    g|-------------------|-------------------|---------------------|-----------------------
    d|------------2------|------------2------|---------------------|-----------------------
    a|------2-2-4-----2--|------2-2-4-----2--|---4-2---------------|-4-2------------2------
    E|--4-4---------4----|--4-4---------4----|-4-----4-3-2-2-2-0-4-|----4-3-2-2-2-0--------
    
    
    
    C#m			   F#m		B7
    Preciso demonstrar pra ela que mereço seu tempo pra dizer
    C#m			   F#m		B7
    Um pouco das ideias novas e os lugares onde viagei
    C#m			   F#m			   B7
    Se ela botar fé na minha história que é de rocha e vem do coração
    C#m			   F#m		B7
    Vou estender o pano mais bonito feito na ilha de Madagascar
    C#m			        F#m			B7
    Um Bob, um Djavan, um Jimmy na viola, humildade de quem sabe onde quer chegar 
    C#m			   F#m			   B7
    Reparei a flor no seu vestido só guerreiro de hora boa pode merecer
    C#m			   F#m		B7	     C#m
    E ela parou, olhou, sorriu, me deu um beijo e foi embora
    F#m			 B7
    Não vi mais a gata mais tenho a minha gaita pra me consolar
    
    
    C#m	   F#m	    B7
    Andei meio só pela noite
    C#m			           F#m	  B7
    Cantei um Reggae pros cachorros na rua
    C#m	   F#m      B7
    Andei meio só pela noite
    C#m			   F#m		B7
    Cantei um verso daquele velho samba pra lua
    C#m	   F#m	    B7
    Andei meio só pela noite
    
    
    Intro (baixo {ou violão} + o solo na gaita)
    
    C#m			   F#m		B7
    Preciso demonstrar pra ela que mereço seu tempo pra dizer
    C#m			   F#m		B7
    Um pouco das ideias novas e os lugares de onde viagei
    C#m			   F#m			   B7
    Se ela botar fé na minha história que é de louca mas não é besteira não
    C#m			   F#m		B7
    Vou estender o pano mais bonito feito na ilha de Madagascar
    C#m			        F#m			B7
    Um Bob, um Djavan, um Jimmy na viola, humildade de quem sabe onde quer chegar 
    C#m			   F#m			   B7
    Reparei a flor no seu vestido só guerreiro de hora boa pode merecer
    C#m			   F#m		B7	     C#m
    E ela parou, olhou, sorriu, me deu um beijo e foi embora
    F#m			 B7
    Não vi mais a gata mais tenho a minha gaita pra me consolar
    
    
    C#m	   F#m	    B7
    Andei meio só pela noite
    C#m				   F#m	B7
    Cantei um Reggae pros cachorros na rua
    C#m	   F#m	    B7
    Andei meio só pela noite
    C#m			   F#m		B7
    Cantei um verso daquele velho samba pra lua
    C#m	   F#m	    B7
    C#m			F#m	B7
    Tudo bem, a vida continua
    C#m	   F#m	    B7
    Andei meio só pela noite
    
    INTRO:


    Comente
    user 300 caracteres restantes. Enviar

    Todas as letras de Natiruts

    Publicidade
    Notícias
    Mais notícias »
    Hot Spot
    Top Músicas do Vagalume
    Top 100 »

    As informações deste site são postadas integralmente pelos usuários. É importante dizer que é possível que os dados estejam desatualizados ou incorretos, sendo assim, o Vagalume exime-se de qualquer responsabilidade sobre as informações publicadas.Caso haja interesse em remover ou alterar alguma informação, entre em contato conosco.


    É permitida somente a visualização no site das letras de músicas encontradas aqui, vedada sua reprodução através de quaisquer outros meios (Lei 9610/98).Todas as letras de músicas são propriedade dos seus respectivos autores e divulgadas somente para fins educacionais.All lyrics are property and copyright of their owners. All lyrics are provided for educational purposes only.