Muito mais que só letras de músicas

  • Vagalume
  • A-Z
  • Estilos
  • Top 100
  • Playlists
  • Hot Spots
  • Notícias
  • PLAY

    Instrumento:
    Intro: (Am  C  G  Em)
    Intro com distorção: (A B C D C ) (G D E D C )  x2
    
    
    
    Am     C       G
    Lay beside me, 
    Em                   Am
    Tell me what they've done, 
                  C             G
    And speak the words I wanna hear 
       Em             Am
    To make my demons run.
                C          G
    The door is locked now, 
             Em               Am
    But it's opened if you're true.
               C              G
    If you can understand the me, 
               Em             (Am  C  G  Em)
    Then I can understand the you.
    
    
    Am   C        G
    Lay beside me, 
    Em            Am
    Under wicked skies.
                    C            G
    Through back of day, dark of night, 
       Em             Am
    We share this paradise.
                   C     G
    The door cracks open, 
                Em             Am
    But there's no sun shining through.
                C                G
    Black heart scarring darker still, 
          Em              Dm
    Still no sun shining through,
       F              G                
    No no sun shining through, 
       F           Am
    No no sun shining.
    
    
    
    -------------REFRÃO-----------------
    
    Am              G	
    What I've felt, what I've known,
    C              E7
    Turn the pages turn the stone
      Am                     G           C   E7
    Behind the door should I open it for you?
    Am              G
    What I've felt, what I've known
    C                 E7
    Sick and tired I stand alone, 
          Am                          G                 C
    Could you be there? Cause I'm the one who waits for you.
    
    ----------FIM DO REFRÃO--------------
    
               E7             (Am  C  G  Em)
    Or are you unforgiven, too?
    
    
    Am         C       G
    Come lay beside me, 
    Em                Am
    This won't hurt I swear.
                 C                 G
    She loves me not she loves me still, 
               Em           Am
    But she'll never love again.
              C
    She lay beside me, 
    G          Em                Am
    But she'll be there when I'm gone.
                 C               G
    Black heart scarring darker still, 
                E7                Dm
    Yeah she'll be there when I'm gone.
               F                 G
    Yes she'll be there when I'm gone, 
         F              Am
    Dead sure she'll be there.
    
    
    
    
    REPETE REFRÃO	
    
    SOLO: (Am  C  G  Em)
    
    
    
    Am    C       G
    Lay beside me, 
    Em                Am
    Tell me what I've done.
                C                  G
    The door is closed so are your eyes, 
        Em            Dm
    But now I see the sun, 
        F         G        E7
    Now I see the sun, yes now I see it.
    
    
    
    REPETE REFRÃO
    
    
    
         E7
    The one who waits for you
    
    Am              G	
    What I've felt, what I've known,
    C              E7
    Turn the pages turn the stone
      Am                     G           C   E7
    Behind the door should I open it for you?
    Am             C G             E7
    What I've felt, what I've known
    Am                    C             G
    I take this key and I bury it in you
                   E7            
    Because you're unforgiven too.
    Am     G         C
    Never me never me
                   D                  G
    Because you're unforgiven too.
    
    
    
    
    Riffs
    
    Intro (Distorção)
    
    1a) Kirk (left side)
    Gb|--------------------------------------------------------
    Db|--7--7/9-9/10-12--14-12-10/1210--7/9-9/10-12--12-9/109
    Ab|--7-----------------------------------------------------
    Eb|--5--5/7-7/8--10--12-10-8-/108---5/7-7/8--10--10-7/8-7
    
    1b) James
    Db|--2---5------5-----2
    Ab|--0---3------5-----2
    Eb|-------------3-----0
    
    
    
    Verso (Som limpo)
    
    2)
    eb|---------0------------------0---3-------------------
    Bb|----------1-----------------3/5-3-53---3^-0--1/31-
    Gb|------2-----------------0---------------------2/42-
    Db|----2-----------------2-----------------------------
    Ab|--0------------0-2-3--------------------------------
    Eb|----------------------------------------3--0--------
    "Lay beside me, tell me what they've done"
    
    Este dedilhado é tocado com uma Fender Telecaster equipada com um B|-bender (assim como Ronnie).
    É quase impossível tocar igual sem este recurso. Que torna possível fazer bends de um tom próximo ao capotraste (nut ou traste zero).
     
    3)
    eb|----------------------------------------0
    Bb|-------3--------------------------------1
    Gb|-----2--2------0----------0-------0-----2
    Db|---0-------------3------0-----------3---2
    Ab|--------------3-------2---------3-------0
    Eb|------------1-------3---------1----------
    bridge
    "But there's no sun shining through."
    
    
    4a)
    eb|------------------------------------------     --        ---
    Bb|--0--------------------------------------0     -- Pode-se---
    Gb|--4--5-5--5---4-4--4--7-7--7-7-7--5-5-5--4     -4 tocar  ---
    Db|--7--7-7--7---5-5--5--5-5--5-5-5--5-5-5--5     -5 como   -9-
    Ab|--7--7-7--7---2-2--2----------------------     -2 isto   -10
    Eb|------------------------------------------     --        -7- 
                    *see side note                                
    4b)             *
    eb|---------------------------------------------
    Bb|--0------------------------------------------
    Gb|--4--5-5--5---4-4--4--7-7--7-7-7--7-5-4-5-4--
    Db|--7--7-7--7---5-5--5--5-5--5-5-5------------7
    Ab|--7--7-7--7---2-2--2-------------------------
    Eb|---------------------------------------------
    "What I've felt, what I've known"
    
    
    5a) left
    eb|------------------------------------
    Bb|------------------------------------
    Gb|------2--------5-----------------9--
    Db|----2---2----5---5------5------9---9
    Ab|--0--------3----------5---5--7------
    Eb|--------------------3---------------
    
    5b) right
    eb|------------------------------------
    Bb|------------------------------------
    Gb|--4-2-4-2--7-5-7-5-----------9-7-9-7
    Db|--------------------7-5-7-5---------
    Ab|------------------------------------
    Eb|------------------------------------
    "Come lay beside me" (Segundo verso)
    Tocado com echo e chorus.
    
    
    
    ----------------------------
    SOLO                        full          full    full   full   full
    Eb|---------------------------------------------15-----15-----15--15-I
    Bb|-----------------------12--15--12----12--15-----15------15--------I
    Gb|--7-5h7p5-4-5------/14------------14------------------------------I
    Db|--------------5---------------------------------------------------I
    Ab|------------------------------------------------------------------I
    Eb|------------------------------------------------------------------I
    
                 full            full            full           
    Eb|-----17--------------17--------------17---------17---------I
    Bb|-/17----17--20---/17----17--20---/17----17--20-----20--17--I
    Gb|-----------------------------------------------------------I
    Db|-----------------------------------------------------------I
    Ab|-----------------------------------------------------------I
    Eb|-----------------------------------------------------------I
    
       1/2
    Eb|-------------------------------------------------------------------------I
    Bb|-------------------19-17----19-17----19-17----19-17----19-17----19-17----I
    Gb|-19--17--19--17----19-17----19-17----19-17----19-17----19-17----19-17----I
    Db|----------------19-------19-------19-------19-------19-------19-------19-I
    Ab|-------------------------------------------------------------------------I
    Eb|-------------------------------------------------------------------------I
    
    
                1/2
    Eb|--------------------------------------------I
    Bb|-17----------------------19-17--------------I
    Gb|----20-17-19-17-19-17----19-17--------------I
    Db|----------------------19-------19-----------I
    Ab|--------------------------------------------I
    Eb|--------------------------------------------I


    Comente
    user 300 caracteres restantes. Enviar

    Todas as letras de Metallica

    Publicidade
    Notícias
    Mais notícias »
    Hot Spot
    Top Músicas do Vagalume
    Top 100 »

    As informações deste site são postadas integralmente pelos usuários. É importante dizer que é possível que os dados estejam desatualizados ou incorretos, sendo assim, o Vagalume exime-se de qualquer responsabilidade sobre as informações publicadas.Caso haja interesse em remover ou alterar alguma informação, entre em contato conosco.


    É permitida somente a visualização no site das letras de músicas encontradas aqui, vedada sua reprodução através de quaisquer outros meios (Lei 9610/98).Todas as letras de músicas são propriedade dos seus respectivos autores e divulgadas somente para fins educacionais.All lyrics are property and copyright of their owners. All lyrics are provided for educational purposes only.