Muito mais que só letras de músicas

  • Vagalume
  • A-Z
  • Estilos
  • Top 100
  • Playlists
  • Hot Spots
  • Notícias
  • Play
    PLAY

    Guitar Intro

    e|-------------------------------------------------|
    B|-------------------------------------------------|
    G|–------------------------------------------------|
    D|-4-4-4--4-4-4-6--6-6--6-6-6--5-5-5--5-5-5-6--6-6-|
    A|-------------------------------------------------|
    E|-------------------------------------------------|

    e|-------------------------------------------------------|
    B|-------------------------------------------------------|
    G|------6-4---------------------------------------4-3----|
    D|--4---6-4--4-4-4--4-4-4-6--6-6--6-6-6--5-5-5--5----4/6-|
    A|--4h6–-------------------------------------------------|
    E|-------------------------------------------------------|

    Verse

    e|---------------------------------------------------------|
    B|---------------------------------------------------------|
    G|---------------------------------------------------------|
    D|---------------------------------------------------------|
    A|---------------------------------------------------------|
    E|-----4-2-4--------------------------4-2-4----------------|

    "Feels like you made a mistake. You made somebody's heart
    break.

    e|--------------------------------------------------------------|
    B|----------------3/4-3/4-3/4-3/4-3/4-3/4-3/4-------------------|
    G|----------------3/4-3/4-3/4-3/4-3/4-3/4-3/4-------------------|
    D|--------------------------------------------------------------|
    A|-----4-2-4----------------------------------------------------|
    E|--------------------------------------------------------------|
    "Now I have to let you go.

    e|--------------------------------------------------------------|
    B|----------------3/4-3/4-3/4-3/4-3/4-3/4-3/4-------------------|
    G|----------------3/4-3/4-3/4-3/4-3/4-3/4-3/4-------------------|
    D|--------------------------------------------------------------|
    A|--------------------------------------------------------------|
    E|-----4-2-4----------------------------------------------------|
    I have to let you go."


    Verse Lead Guitar Part

    "You left a stain
    e|----------------|
    B|----------------|
    G|----------------| Let each these ring out
    D|-6-6-6--6-6-1---|
    A|-6-4-6--6-4-1---|
    E|----------------|

    "On every one of my good days

    e|------------------|
    B|------------------|
    G|------------------|
    D|-2-1-2--2-2-1-----|
    A|-2-2-2--2-2-1-----|
    E|------------------|


    "But I am stronger than you know
    e|------------------|
    B|------------------|
    G|------------------|
    D|-6-6-6--6-6-6-----|
    A|-7-6-7--7-6-4-----|
    E|------------------|

    "I have to let you go"
    e|------------------|
    B|------------------|
    G|------------------|
    D|-6-6-6--6-6--8----|
    A|-6-4-6--6-4--6----|
    E|------------------|



    Intro to Chorus - chords - tocar as notas indicadas
    abaixo.

    E F# G#m C#sus E Eb
    e|–-0------2------4----------4---------0---------x--|
    B|–-0------2------4----------4---------0---------8--|
    G|–-1------3------4----------4h6-------1---------8--|
    D|–-2------4------6----------4h6-------2---------8--|
    A|--2------4------6----------4---------2---------6--|
    E|–-0------2------4----------x---------0---------x--|

    Nessa parte tem esse solinho por trás, parece que é de
    teclado mas dá pra fazer na guitarra.
    e|-7-6-4-------------|
    B|-------7--5-4------|
    G|-------------------| São tocados 3 vezes nas falas (TURNED, EVER, GIRL)
    D|-------------------|
    A|-------------------|
    E|-------------------|
    E
    "No one ever turned you over

    F# G#m C#sus
    "No one's tried to ever let you down
    E Eb
    "Beautiful girl, Bless your heart."



    Chorus- chords (each of these chords 1 measure)

    G#m C#sus Eb G#m
    e|–--4----------4--------(6)------4-----|
    B|–--4----------4---------8-------4-----|
    G|–--4----------4h6-------8-------4-----| repeat 2 times
    D|–--6----------4h6-------8-------4h6---|
    A|---6----------4---------6-------6-----|
    E|–--4----------x---------x-------4-----|

    Chorus
    I've got a disease
    Deep inside me
    Makes me feel uneasy baby
    I can't live without you
    Tell me what I'm supposed to do about it
    Keep your distance from it
    Don't pay no attention to me
    I got a Disease

    Return to Verse Lead Guitar Part and Repeat Chorus 4 times
    and then play after last Eb

    C#sus (2 measures) G#m (2 measures) C#sus (2 measures) Eb
    e|––-4------------------4-------------------4--------------x------|
    B|––-4------------------4-------------------4--------------8------|
    G|–--6------------------4-------------------6--------------8------|
    D|–--6------------------6-------------------6--------------8------|
    A|---4------------------6-------------------4--------------6------|
    E|–--x------------------4-------------------x--------------x------|

    "I'm free of my disease."

    Repeat Chorus Chords 4 times and then play

    G#m Eb
    e|––-4--------x----------|
    B|––-4--------8----------|
    G|––-4--------8----------| repeat 4 times then end with G#m chord.
    D|––-6--------8----------|
    A|—--6--------6----------|
    E|–--4--------x----------|

    "I'm free of my disease."



    There are some guitar parts that precede and accompany the second verse.
    They are as follows:

    Just as the first Chorus ends play:
    E|--------4--------------------------|
    B|----------7pulloff4----------------|
    G|---6p8--------------6/8------------|
    D|-----------------------------------|
    A|-----------------------------------|
    E|-----------------------------------|

    After each verse line in the second verse:

    E|--------4--------------------------|
    B|----------7pulloff4----------------|
    G|--------------------6-4p-6---------|
    D|---------------------------5-------|
    A|-----------------------------------|
    E|-----------------------------------|


    E|--------4--------------------------|
    B|----------7pulloff4----------------|
    G|--------------------6-4p-6-4-------|
    D|-----------------------------------|
    A|-----------------------------------|
    E|-----------------------------------|

    E|--------4--------------------------|
    B|----------7pulloff4----------------|
    G|--------------------6-4p-6-3-------|
    D|-----------------------------------|
    A|-----------------------------------|
    E|-----------------------------------|

    E|--------4--------------------------|
    B|----------7pulloff4----------------|
    G|--------------------6-4p-6-4/6-----|
    D|-----------------------------------|
    A|-----------------------------------|
    E|-----------------------------------|



    Comente
    user 300 caracteres restantes. Enviar

    Todas as letras de Matchbox Twenty

    Publicidade
    Notícias
    Mais notícias »
    Hot Spot
    Top Músicas do Vagalume
    Top 100 »

    As informações deste site são postadas integralmente pelos usuários. É importante dizer que é possível que os dados estejam desatualizados ou incorretos, sendo assim, o Vagalume exime-se de qualquer responsabilidade sobre as informações publicadas.Caso haja interesse em remover ou alterar alguma informação, entre em contato conosco.


    É permitida somente a visualização no site das letras de músicas encontradas aqui, vedada sua reprodução através de quaisquer outros meios (Lei 9610/98).Todas as letras de músicas são propriedade dos seus respectivos autores e divulgadas somente para fins educacionais.All lyrics are property and copyright of their owners. All lyrics are provided for educational purposes only.