Muito mais que só letras de músicas

  • Vagalume
  • A-Z
  • Estilos
  • Top 100
  • Playlists
  • Hot Spots
  • Notícias
  • PLAY

    Instrumento:
    Intro (Synthesizer transcribed for guitar)
    e----------------------------------------
    B----------------------------------------
    G----------------------------------------
    D-0-0---0---------0---10h12---0---12p10--
    A-0-0---0---------0---10h12---0---12p10--
    D-0-0---0---------0---10h12---0---12p10--
      ^-^
      Just hit lightly
    
    e----------------------
    B----------------------
    G----------------------
    D-0---10h12---0--6-6-6-
    A-0---10h12---0--6-6-6-
    D-0---10h12---0--6-6-6-
    
    Verse A
    e-----------------------------------------
    B-----------------------------------------
    G-----------------------------------------
    D--0-10h12--0-10h12--0-10h12--0-12p10-----
    A--0-10h12--0-10h12--0-10h12--0-12p10-----
    D--0-10h12--0-10h12--0-10h12--0-12p10-----
    
    e---------------------------------------
    B---------------------------------------
    G---------------------------------------
    D--0-10h12--0-10h12--0-10h12--0-6-6-6---
    A--0-10h12--0-10h12--0-10h12--0-6-6-6---
    D--0-10h12--0-10h12--0-10h12--0-6-6-6---
    
    Verse B (Synthesizer transcribed for guitar 2)
    e-18--------------------18--------------
    B------17--20----------------17--20-----
    G--------------18--16-------------------
    D---------------------------------------
    A---------------------------------------
    D---------------------------------------


    Comente
    user 300 caracteres restantes. Enviar

    Todas as letras de Marilyn Manson

    Publicidade
    Notícias
    Mais notícias »
    Hot Spot
    Top Músicas do Vagalume
    Top 100 »

    As informações deste site são postadas integralmente pelos usuários. É importante dizer que é possível que os dados estejam desatualizados ou incorretos, sendo assim, o Vagalume exime-se de qualquer responsabilidade sobre as informações publicadas.Caso haja interesse em remover ou alterar alguma informação, entre em contato conosco.


    É permitida somente a visualização no site das letras de músicas encontradas aqui, vedada sua reprodução através de quaisquer outros meios (Lei 9610/98).Todas as letras de músicas são propriedade dos seus respectivos autores e divulgadas somente para fins educacionais.All lyrics are property and copyright of their owners. All lyrics are provided for educational purposes only.