Muito mais que só letras de músicas

  • Vagalume
  • A-Z
  • Estilos
  • Top 100
  • Playlists
  • Hot Spots
  • Notícias
  • PLAY

    Instrumento:
    Intro: A E F#m D
    
    E|--5p0-12\--5-5-5-5/7--9-9-9-9/10--|
    B|----------------------------------|
    G|----------------------------------|
    D|----------------------------------|
    A|----------------------------------|
    E|----------------------------------|
    
        A                     E
    Fiquei a dois dedos da sua boca e não beijei
        F#m                   D
    Perdi o "time" pra me declarar e me calei
        A                        E                D
    Milhões de desencontros culminaram nessa decisão (riff 1)
    
        A                      E
    Perdi meu celular e o seu número foi junto
         F#m                      D
    Nosso primeiro encontro tava meio sem assunto
        A                     E                  D           E
    Talvez por timidez eu me fechei e esperei você me procurar (riff 2)
    
    Solo durante o Refrão:
    
    E|--5-5-5-5-5-5-5-5-7-7-7-7-7-7-7-7----------|
    B|----------------------------------6/7-7/9--|
    G|-------------------------------------------|
    D|-------------------------------------------|
    A|-------------------------------------------|
    E|-------------------------------------------|
    
    E|--5-5-5-5-5-5-5-5-7-7-7-7-7-7-7-7------------------|
    B|----------------------------------5/7-6/7-7-9-12\--|
    G|---------------------------------------------------|
    D|---------------------------------------------------|
    A|---------------------------------------------------|
    E|---------------------------------------------------|
    
    Refrão:
                 A
    Não era pra ser, não, não, não
              E
    Não ia rolar
          D
    Já tivemos tantas chances
              E
    Mais ninguém quis se entregar
    
                 A
    Não era pra ser, não, não, não
                E
    Não ia dar certo
          D
    A distância vai dizer
            Bm           Bm   C#m  D9     A
    Se é melhor eu ficar lo - on - ge ou perto
    
    Solo durante a fala:
    
    E|--5-5-5-5-5-5-5-5-7-7-7-7-7-7-7-7-5-5-5-5-5-5-5p4----------------|
    B|--------------------------------------------------7p5-5h7-7/9-7--|
    G|-----------------------------------------------------------------|
    D|-----------------------------------------------------------------|
    A|-----------------------------------------------------------------|
    E|-----------------------------------------------------------------|
    
    E|--5-5-5-5-5-5-5-5-7-7-7-7-7-7-7-7-5-5-5-5-5-5-5p4-----7-12-12-12-12-12-12--|
    B|--------------------------------------------------7p5----------------------|
    G|---------------------------------------------------------------------------|
    D|---------------------------------------------------------------------------|
    A|---------------------------------------------------------------------------|
    E|---------------------------------------------------------------------------|
    
    Tem coisas que acontece na vida da gente,
    Que é melhor deixa na mão do destino.
    Eu fiz de tudo que eu podia mais não rolo
    Talvez não era pra ser né. 
    
        A                     E
    Fiquei a dois dedos da sua boca e não beijei
        F#m                   D
    Perdi o "time" pra me declarar e me calei
        A                        E                D
    Milhões de desencontros culminaram nessa decisão (riff 3)
    
        A                      E
    Perdi meu celular e o seu número foi junto
         F#m                      D
    Nosso primeiro encontro tava meio sem assunto
        A                     E                  D           E
    Talvez por timidez eu me fechei e esperei você me procurar (riff 2)
    
    Solo durante o Refrão:
    
    E|--5-5-5-5-5-5-5-5-7-7-7-7-7-7-7-7----------12--|
    B|----------------------------------6/7-7/9------|
    G|-----------------------------------------------|
    D|-----------------------------------------------|
    A|-----------------------------------------------|
    E|-----------------------------------------------|
    
    E|--5-5-5-5-5-5-5-5-7-7-7-7-7-7-7-7------------------|
    B|----------------------------------5/7-6/7-7-9-12\--|
    G|---------------------------------------------------|
    D|---------------------------------------------------|
    A|---------------------------------------------------|
    E|---------------------------------------------------|
    
    Refrão:
                 A
    Não era pra ser, não, não, não
              E
    Não ia rolar
          D
    Já tivemos tantas chances
              E
    Mais ninguém quis se entregar
    
                 A
    Não era pra ser, não, não, não
                E
    Não ia dar certo
          D
    A distância vai dizer
            Bm           Bm   C#m  D9     A
    Se é melhor eu ficar lo - on - ge ou perto
    
    E|--5-5-5-5-5-5-5-5-7-7-7-7-7-7-7-7-5-5-5-5-5-5-5p4----------------|
    B|--------------------------------------------------7p5-5h7-7/9-7--|
    G|-----------------------------------------------------------------|
    D|-----------------------------------------------------------------|
    A|-----------------------------------------------------------------|
    E|-----------------------------------------------------------------|
    
                 A
    Não era pra ser, não, não, não
              E
    Não ia rolar
          D
    Já tivemos tantas chances
              E
    Mais ninguém quis se entregar
    
                 A
    Não era pra ser, não, não, não
                E
    Não ia dar certo
          D
    A distância vai dizer
            Bm           Bm   C#m  D9     A    E   F#m   D
    Se é melhor eu ficar lo - on - ge ou perto
           A
    Ou perto
    
    E|--5-5-5-5----------------------------5--|
    B|----------7-7-7-7-5-4-------------------|
    G|----------------------7--7-7-7-5-4------|
    D|-----------------------------------7----|
    A|----------------------------------------|
    E|----------------------------------------|
    
    
    Riff 1     Riff 2           Riff 3
    E|-12~-|  E|--5p4------| E|--12~--12\--|
    B|-----|  B|------7-5--| B|------------|
    G|-----|  G|-----------| G|------------|
    D|-----|  D|-----------| D|------------|
    A|-----|  A|-----------| A|------------|
    E|-----|  E|-----------| E|------------|


    Comente
    user 300 caracteres restantes. Enviar

    Todas as letras de Luan Santana

    Publicidade
    Notícias
    Mais notícias »
    Hot Spot
    Top Músicas do Vagalume
    Top 100 »

    As informações deste site são postadas integralmente pelos usuários. É importante dizer que é possível que os dados estejam desatualizados ou incorretos, sendo assim, o Vagalume exime-se de qualquer responsabilidade sobre as informações publicadas.Caso haja interesse em remover ou alterar alguma informação, entre em contato conosco.


    É permitida somente a visualização no site das letras de músicas encontradas aqui, vedada sua reprodução através de quaisquer outros meios (Lei 9610/98).Todas as letras de músicas são propriedade dos seus respectivos autores e divulgadas somente para fins educacionais.All lyrics are property and copyright of their owners. All lyrics are provided for educational purposes only.