Muito mais que só letras de músicas

  • Vagalume
  • A-Z
  • Estilos
  • Top 100
  • Playlists
  • Hot Spots
  • Notícias
  • PLAY

    Instrumento:
    Capotraste na 2ª casa
    
    Refrão:
    	
    A9            E                     F#m                  D   E
     O feitiço virou contra o feiticeiro. Dá pra ver na sua cara o desespero
    A9            E                    F#m                     D   E
     Você fez de tudo pra me ver sofrer. E hoje quem sofre e chora é você
    
    Base do solo:(A9 E F#m D)   (A9 E F#m D E)
    
    Solo:	
    E|--------------------------------1/2-2-2-1------|
    B|--4/5-5-5-3-2-0--4/5-5-5-3-2----2/3-3-3-2-3-5--|
    G|-----------------------------2------------4-6--|
    D|-----------------------------------------------|
    A|-----------------------------------------------|
    E|-----------------------------------------------|
    
    E|------------------------------------------0h1h2-1-2-4--|
    B|--4/5-5-5-3-2-0--4/5-5-5-3-2--------0h2h3-------2-3-5--|
    G|------------------------------0h3h4--------------------|
    D|-------------------------------------------------------|
    A|-------------------------------------------------------|
    E|-------------------------------------------------------|
    
    A9         E  F#m           D
     Pra você ver,  você ta pagando pelo que me fez
    A9          E  F#m              D
     Me fez sofrer,  Mas o mundo gira e agora é sua vez
    
    A9        E  Bm                  D
     De acertar   As contas com sua própria consciência
    A9        E  Bm              D
     E entender   Que cada ato gera uma conseqüência
    
    Bm                            F#m                         
     Será que dessa vez você aprendeu a lição
    D                  Bm              E
     Quem planta indiferença colhe solidão
    
    Refrão:
    
    A9            E                     F#m                  D   E
     O feitiço virou contra o feiticeiro. Dá pra ver na sua cara o desespero
    A9            E                    F#m                     D   E
     Você fez de tudo pra me ver sofrer. E hoje quem sofre e chora é você
    
    A9            E                     F#m                  D   E
     O feitiço virou contra o feiticeiro. Dá pra ver na sua cara o desespero
    A9            E                    F#m                     D   E
     Você fez de tudo pra me ver sofrer. E hoje quem sofre e chora é você
    
    Base do solo:(A9 E F#m D)   (A9 E F#m D E)
    Solo:	
    E|--------------------------------1/2-2-2-1------|
    B|--4/5-5-5-3-2-0--4/5-5-5-3-2----2/3-3-3-2-3-5--|
    G|-----------------------------2------------4-6--|
    D|-----------------------------------------------|
    A|-----------------------------------------------|
    E|-----------------------------------------------|
    
    E|------------------------------------------0h1h2-1-2-4--|
    B|--4/5-5-5-3-2-0--4/5-5-5-3-2--------0h2h3-------2-3-5--|
    G|------------------------------0h3h4--------------------|
    D|-------------------------------------------------------|
    A|-------------------------------------------------------|
    E|-------------------------------------------------------|
    
    Bm                            F#m                         
     Será que dessa vez você aprendeu a lição
    D                  Bm              E
     Quem planta indiferença colhe solidão
    
    Refrão:
    
    A9            E                     F#m                  D   E
     O feitiço virou contra o feiticeiro. Dá pra ver na sua cara o desespero
    A9            E                    F#m                     D   E
     Você fez de tudo pra me ver sofrer. E hoje quem sofre e chora é você
    
    A9            E                     F#m                  D   E
     O feitiço virou contra o feiticeiro. Dá pra ver na sua cara o desespero
    A9            E                    F#m                     D   E       A9
     Você fez de tudo pra me ver sofrer. E hoje quem sofre e chora é você
    
    E|-------------------|
    B|-------------------|
    G|-------------------|
    D|--------------0----|
    A|--------0-2-4---0--|
    E|--0-2-4------------|
    
                E                     F#m                  D   E
     O feitiço virou contra o feiticeiro. Dá pra ver na sua cara o desespero
    A9            E                    F#m                              D        A9
     Você fez de tudo pra me ver sofrer. E hoje quem sofre e chora é você


    Comente
    user 300 caracteres restantes. Enviar

    Todas as letras de Luan Santana

    Publicidade
    Notícias
    Mais notícias »
    Hot Spot
    Top Músicas do Vagalume
    Top 100 »

    As informações deste site são postadas integralmente pelos usuários. É importante dizer que é possível que os dados estejam desatualizados ou incorretos, sendo assim, o Vagalume exime-se de qualquer responsabilidade sobre as informações publicadas.Caso haja interesse em remover ou alterar alguma informação, entre em contato conosco.


    É permitida somente a visualização no site das letras de músicas encontradas aqui, vedada sua reprodução através de quaisquer outros meios (Lei 9610/98).Todas as letras de músicas são propriedade dos seus respectivos autores e divulgadas somente para fins educacionais.All lyrics are property and copyright of their owners. All lyrics are provided for educational purposes only.