Muito mais que só letras de músicas

  • Vagalume
  • A-Z
  • Estilos
  • Top 100
  • Playlists
  • Hot Spots
  • Notícias
  • PLAY

    Instrumento:
    Introdução - Am G
    
    Tom - Am
                        1     2        3     4
    e------------------|-----|-10-----|-----|-7-----|
    B-10---------8-----|-8---|----8-7-|-8---|---8---|
    G----9-7-9/7---7-7-|---7-|--------|---7-|-----7-|
    D------------------|-----|--------|-----|-------|
    A------------------|-----|--------|-----|-------|
    E------------------|-----|--------|-----|-------|
    
    Canto 1 (1a parte)  1     2       3     4
    e------------------|-----|-7-----|-----|-7-----|
    B-10---------8-----|-8---|---8---|-8---|---8---|
    G----9-7-9/7---7-7-|---7-|-----7-|---7-|-----7-|
    D------------------|-----|-------|-----|-------|
    A------------------|-----|-------|-----|-------|
    E------------------|-----|-------|-----|-------|
    
     2a parte           1,3,4 2
    e------------------|-----|-8-7-|-5-------------------
    B-10---------8-----|-8---|-----|-6                  -
    G----9-7-9/7---7-7-|---7-|-----|-7 batida ^!^!^!^!^ -
    D------------------|-----|-----|-7                  -
    A------------------|-----|-----|-5   "número 1"     -
    E------------------|-----|-----|---------------------
    
    e-8-------------8------------6-----------------------------|
    B-10          --8-          -6-          -10---------8-----|
    G-10 batida 1 --9- batida 1 -7- batida 1 ----9-7-9/7---7-7-|
    D-10          -10-          -8-          ------------------|
    A-8           -10-          -8-          ------------------|
    E---------------8------------6-----------------------------|
    
     1     2     3     4       Canto 3 (1a parte) 1     2      3
    e-----|-----|-----|-7-----|------------------|-----|------|-------------------------|
    B-8---|-8-7-|-8---|---8---|-10---------8-----|-8---|-10-8-|-8---10---------10-----8-|
    G---7-|-----|---7-|-----7-|----9-7-9/7---7-7-|---7-|------|---7----9-7-9/----9-7----|
    D-----|-----|-----|-------|------------------|-----|------|-------------------------|
    A-----|-----|-----|-------|------------------|-----|------|-------------------------|
    E-----|-----|-----|-------|------------------|-----|------|-------------------------|
    
                        1       2       3     4
    e------------------|-7-----|-7-----|-----|-----|
    B-10---------8-----|---8---|---8---|-8---|-8---|
    G----9-7-9/7---7-7-|-----7-|-----7-|---7-|---7-|
    D------------------|-------|-------|-----|-----|
    A------------------|-------|-------|-----|-----|
    E------------------|-------|-------|-----|-----|
    
     
    Am    G          Am
    Aquele gosto amargo do
                 G
            teu corpo
    Am       G          Am
    Ficou na minha boca por
                 G
            mais tempo
    Am              G          Am
    De amargo e então salgado
                 G
            ficou doce,
    Am      G          Am
    Assim que o teu cheiro
                 G
            forte e lento
    Dm              F
    Fez casa nos meus braços
                          C
            e ainda leve
               Bb               Dm       F
    E forte e cego e tenso fez saber
       C
    Que ainda era muito e
            Bb
            muito pouco.Intr.
    Am    G     G
    Faço nosso o meu segredo mais
               G
            sincero
    Am   G      Am         G
    E desafio o instinto dissonante.
    Am    G        G
    A insegurança não me ataca
            G
            quando erro
    Am        G                G
    E o teu momento passa a ser
                       G
            o meu instante.
    Dm              F
    E o teu medo de ter medo de
            ter medo
    C                      Bb
    Não faz da minha força confusão
      Dm
    Teu corpo é meu espelho e em ti
            F
            navego
            C
    E sei que tua correnteza não tem
            Bb
            direção.[solo]
    Dm                   F
    Mas, tão certo quanto o erro de
            ser barco
      C             Bb
    A motor e insistir em usar os remos,
    Dm
    É o mal que a água faz quando se
            F
            afoga
            C
    E o salva-vidas não está  porque
               Bb
            não vemos.


    Comente
    user 300 caracteres restantes. Enviar

    Todas as letras de Legião Urbana

    Publicidade
    Notícias
    Mais notícias »
    Hot Spot
    Top Músicas do Vagalume
    Top 100 »

    As informações deste site são postadas integralmente pelos usuários. É importante dizer que é possível que os dados estejam desatualizados ou incorretos, sendo assim, o Vagalume exime-se de qualquer responsabilidade sobre as informações publicadas.Caso haja interesse em remover ou alterar alguma informação, entre em contato conosco.


    É permitida somente a visualização no site das letras de músicas encontradas aqui, vedada sua reprodução através de quaisquer outros meios (Lei 9610/98).Todas as letras de músicas são propriedade dos seus respectivos autores e divulgadas somente para fins educacionais.All lyrics are property and copyright of their owners. All lyrics are provided for educational purposes only.