Muito mais que só letras de músicas

  • Vagalume
  • A-Z
  • Estilos
  • Top 100
  • Playlists
  • Hot Spots
  • Notícias
  • PLAY

    Instrumento:
    7-string guitar tuned down a full step
    Intro      (all open notes ar palm muted on this riff)
    
    D-----------------------------------------------------------------
    A-----------------------------------------------------------------
    F-----------------------------------------------------------------
    C-----------------------------------------------------------------
    G-----------------------------------------------------------------
    D-----7-----7---7-----7-----7---8-----8-----8---8-----8-----8---7-
    A-0-0---0-0---0---0-0---0-0---0---0-0---0-0---0---0-0---0-0---0---
    
    Intro 2
    D-----------------------------------------------------------
    A------------------------------------------------------------
    F------------------------------------------------------------
    C----------1413-----109------------------------------------
    G------------------------------------------------------------
    D----------1211------87------------7/8-8-8-----------------
    A-0-0-0-0---------0----------0-0-0---5/6-6-6-----------------
    
    
    
    
    Pre-verse
    D-----------------------------------------------------------------------------
    A----------------------11-11-11--11-11-11------11-11-11-11-11-11-11-11--------
    F-----------------------------------------------------------------------------
    C-----------------------------------------------------------------------------
    G-9---------------------------------------------------------------------------
    D-8---------------------------------------------------------------------------
    A-----------------------------------------------------------------------------
    
    Verse                                  Bass arranged for Guitar
    D----------------------------------     D-------------------------------------------------------
    A------------7---6-----6^0---------     A-------------------------------------------------------
    F----4------------------------4----     F------------------------------------------------------- 
    C----------------------------------     C-------------------------------------------------------
    G----------------------------------     G-------------------------------------------------------
    D----------------------------------     D-7-7-7-7---7-7-7-7-------------------------------------
    A----------------------------------     A--------------------7-7-7-7---6-6-6-6--0-0-6-6--6-6-0-0
    
    be my neibor part... (guitar 1)
    D-------------------------------------------------------------------
    A------------------------------------0---------------0--------------
    F------------------------------------0---------------0--------------
    C-------------------------------------------------------------------
    G-------------------------------------------------------------------
    D-3----------3-----------9------8-8-----8------8-8------8-----8-----
    A-1^0-0-0----1^0-0-0-----7------6-6-----6------6-6------6-----6-----
    
    
    
    be my neighbour part ....(guitar 2)
    D--12-----------------11------------------------11--------------------
    A-------------10----------------------------------------------------
    F--------------------------------4-----------------------------------
    C-------------------------------------------------------------------
    G-------------------------------------------------------------------
    D-------------------------------------------------------------------
    A-------------------------------------------------------------------
    
    Bridge 
    D--------------------------7-------|----------------------7------------
    A---------7---------6--------------|----7----------6----------6--------
    F-4--------------------------------|-4----------------------------4----
    C----------------------------------|-----------------------------------
    G----------------------------------|-----------------------------------
    D----------------------------------|-----------------------------------
    A----------------------------------|-----------------------------------
    
        I hate you part..........
    D---------------------------------------------
    A---------------------------------------------
    F---------------------------------------------
    C---------------------------------------------
    G---------------------------------------------
    D-2-2-----2---2-2----2-x-x-8------------------
    A-0-0-----0---0-0----0-x-x-6------------------


    Comente
    user 300 caracteres restantes. Enviar

    Todas as letras de Korn

    Publicidade
    Notícias
    Mais notícias »
    Hot Spot
    Top Músicas do Vagalume
    Top 100 »

    As informações deste site são postadas integralmente pelos usuários. É importante dizer que é possível que os dados estejam desatualizados ou incorretos, sendo assim, o Vagalume exime-se de qualquer responsabilidade sobre as informações publicadas.Caso haja interesse em remover ou alterar alguma informação, entre em contato conosco.


    É permitida somente a visualização no site das letras de músicas encontradas aqui, vedada sua reprodução através de quaisquer outros meios (Lei 9610/98).Todas as letras de músicas são propriedade dos seus respectivos autores e divulgadas somente para fins educacionais.All lyrics are property and copyright of their owners. All lyrics are provided for educational purposes only.