Muito mais que só letras de músicas

  • Vagalume
  • A-Z
  • Estilos
  • Top 100
  • Playlists
  • Hot Spots
  • Notícias
  • PLAY

    Instrumento:
    VERSE: (guitar 1)
    |----------12-12-12-12-12-1313131313----------15-15-|
    |-10-10-10---------------------------11-11-11-------|
    |---------------------------------------------------|
    |---------------------------------------------------|
    |---------------------------------------------------|
    |---------------------------------------------------|
    |---------------------------------------------------|
    
    VERSE: (guitar 2)
    |----------------|
    |----------------|
    |-12-11---10-9-7-|
    |--X--X----X-X-X-|
    |-10--9----8-7-5-|
    |----------------|
    |----------------|
    
    BRIDGE: (guitar 1)
    |------------|
    |------------|
    |------------|
    |------------|
    |-7-10---5-8-|
    |-7-10---5-8-|
    |-5--8---3-6-|
    
    BRIDGE: (guitar 2)
    |----------------|
    |----------------|
    |-12---/19-------|
    |--X-------17-16-|
    |-10-------------|
    |----------------|
    |----------------|
    
    CHORUS: (guitar 1)
    |-----------------------|
    |-----------------------|
    |-----------------------|
    |-----------------------|
    |-8--7------------------|
    |-8--7--5-------4-------|
    |-6--5----5-4-3---4-3-2-|
    
    CHORUS: (guitar 2)
    |----------------------16----|
    |--------17------------------|
    |-14-16-----16--14-16-----16-|
    |----------------------------|
    |----------------------------|
    |----------------------------|
    |----------------------------|
    
    CHORUS FILL: (guitar 1)
    |-----------------|
    |-----------------|
    |-----------------|
    |-----------------|
    |-----------------|
    |-3-------2-------|
    |---3-2-1---2-1-0-|
    
    INTERLUDE: (guitar 1) (w/ effect)
    |----------------------------|
    |----------------------------|
    |-9-11--14-13--9-10-11-14-13-|
    |-X--X---X--X--X--X--X--X--X-|
    |-7--9--12-11--7--8--9-12-11-|
    |----------------------------|
    |----------------------------|
    
    INTERLUDE: (guitar 2)
    |---------------------|
    |---------------------|
    |---------------------|
    |---------------------|
    |-3-5--8-7--3-4-5-8-7-|
    |-3-5--8-7--3-4-5-8-7-|
    |-1-3--6-5--1-2-3-6-5-|
    
    OUTRO:
    |---------------------------------|
    |---------------------------------|
    |---------------------------------|
    |---------------------------------|
    |---------------------------------|
    |-5-------4-------3-------2-------|
    |---5-4-3---4-3-2---3-2-1---2-1-0-|


    Comente
    user 300 caracteres restantes. Enviar

    Todas as letras de Korn

    Publicidade
    Notícias
    Mais notícias »
    Hot Spot
    Top Músicas do Vagalume
    Top 100 »

    As informações deste site são postadas integralmente pelos usuários. É importante dizer que é possível que os dados estejam desatualizados ou incorretos, sendo assim, o Vagalume exime-se de qualquer responsabilidade sobre as informações publicadas.Caso haja interesse em remover ou alterar alguma informação, entre em contato conosco.


    É permitida somente a visualização no site das letras de músicas encontradas aqui, vedada sua reprodução através de quaisquer outros meios (Lei 9610/98).Todas as letras de músicas são propriedade dos seus respectivos autores e divulgadas somente para fins educacionais.All lyrics are property and copyright of their owners. All lyrics are provided for educational purposes only.