Muito mais que só letras de músicas

  • Vagalume
  • A-Z
  • Estilos
  • Top 100
  • Playlists
  • Hot Spots
  • Notícias
  • PLAY

    Instrumento:
    Tom  : C
    Intr.: C G Am Em F C Dm G
    
    e ----------------------------------------------------------------
    B ----8-8-6-6-----------------------------------------------------
    G -9~---------9-7-5~---5-5h7-7/9-7-5-4---5-5-----5-5--------------
    D -------------------7-----------------7-----7-5-----7-5----------
    A ----------------------------------------------------------------
    E ----------------------------------------------------------------
    
    e ----------------------------------------------------------------
    B -----5-5/6-5----------------------------------------------------
    G -5-7---------7-5-5----------------------------------------------
    D ----------------------------------------------------------------
    A ----------------------------------------------------------------
    E ----------------------------------------------------------------
    
    
    
            |    C(D)              G(A)                 Am(Bm)
            |Perdoa se estou te ligando, Amor, neste momento
    Parte 1 |              Em(F#m)          F(G)
            |Mas me fazia falta escutar de novo
            |              C(D)              Dm(Em)  C(D)  G(A)
            |Só por um instante, sua respiração
                 C                        G               Am
             Desculpa, sei que estou quebrando nosso juramento
                            Em                 F
             Sei que existe outro em seu pensamento
                          C                  Dm       G
             Mas meu coração pediu pra te dizer (que)
    
            |             Am        Em        F     G
    Parte 2 |Eu estou morrendo, morrendo por dentro
            |            Am      Em           F    G
            |É tanta saudade, morando em meu peito
    
           |   | C(D)    G(A)              Am(Bm)
           |   |Vida, devolva minhas fantasias
           |   |     Em(F#m)          F(G)
           | A |Meu sonho de viver a vida
           |   |   C(D)      Dm(Em)  G(A) 
           |   |Devolva-me o ar
    Refrão |
           |   |           C(D)       G(A)             Am(Bm)
           |   |Sem teu carinho, meu mundo fica tão vazio
           |   |    Em(F#m)               F(G)
           | B |Os dias quentes são tão frios
           |   |      C(D)       Dm(Em)  G(A)       C(D)
           |   |E as noites me trazem a dor desse amor
    
    SOLO: C G Am Em F C Dm G
    
    e -------------------------------------------|--------------------
    B ----8-8-6-6--------------------------------|---------5-6-8-8----
    G -9~---------9-7-5~---5-5h7-7/9-7-5-----7-7-|-----5-7------------
    D -------------------7---------------5-7-----|-5-7----------------
    A -------------------------------------------|--------------------
    E -------------------------------------------|--------------------
    
    
                 C                G                       Am
             Queria te dizer que hoje estou de bem com a vida
                            Em              F
             Que não senti nada com sua partida
                            C               Dm    G
             Mas com um só dedo não se tapa o sol
    
    Parte 2
    
    Refrão
    
    SOLO: C G Am Em F C D A
    
    e ---------------------------------------------------------------------
    B ----------------10-12-13-13-12-12-10-8-------------------------------
    G -9h10-12-12---9------------------------10-10-9-----------------------
    D -----------------------------------------------10--------------------
    A ---------------------------------------------------------------------
    E ---------------------------------------------------------------------
    
    Refrão => sobe 1 tom até o fim da música
    
    Refrão (A)
    
    Parte 1
    
    --------------------------------------------------------------------------------
    Versão 2 para o solo.
    por Rodrigo - rodnaves@pegasus.nu
    
    
    
    Introdução:
    e---------------------------------------------------------------
    B-3/5--5---8-8-8--6--5/3--1----0--1--3--3/5--3-3/1--------------
    G---------------------------------------------------------------
    D---------------------------------------------------------------
    A---------------------------------------------------------------
    E---------------------------------------------------------------
    
    
    e---------------------------------------------------------------
    B------1-1-------1-1----------0--1--3-3/5--3-3/1-1-1------------
    G-0--1-----1--0-------0-----------------------------------------
    D-------------------------3-------------------------------------
    A---------------------------------------------------------------
    E---------------------------------------------------------------
    
    
    
    
    Solo2
    e---------------------------------------------------------------
    B-3/5--5---8-8-8--6--5/3--3--1----0--1--3--3/5--3-3/1-----------
    G---------------------------------------------------------------
    D---------------------------------------------------------------
    A---------------------------------------------------------------
    E---------------------------------------------------------------
    
    
    e---------------------------------------------------------------
    B--------1-1--3--1-------0--1--3-3/5--3-3/1-1-1-----------------
    G-0--2--------------2-0-----------------------------------------
    D---------------------------------------------------------------
    A---------------------------------------------------------------
    E---------------------------------------------------------------
    
    
    
    
    Solo Final
    e-----------------0-5-7-8-8-7-7-5--3-3--1-1-0-0-----------------
    B-3/5--8--5/1--3-----------------------------------1------------
    G---------------------------------------------------------------
    D---------------------------------------------------------------
    A---------------------------------------------------------------
    E---------------------------------------------------------------
    Está faltano um solo durante o primeiro verso da música, prometo mandar logo.


    Comente
    user 300 caracteres restantes. Enviar

    Todas as letras de KLB

    Publicidade
    Notícias
    Mais notícias »
    Hot Spot
    Top Músicas do Vagalume
    Top 100 »

    As informações deste site são postadas integralmente pelos usuários. É importante dizer que é possível que os dados estejam desatualizados ou incorretos, sendo assim, o Vagalume exime-se de qualquer responsabilidade sobre as informações publicadas.Caso haja interesse em remover ou alterar alguma informação, entre em contato conosco.


    É permitida somente a visualização no site das letras de músicas encontradas aqui, vedada sua reprodução através de quaisquer outros meios (Lei 9610/98).Todas as letras de músicas são propriedade dos seus respectivos autores e divulgadas somente para fins educacionais.All lyrics are property and copyright of their owners. All lyrics are provided for educational purposes only.