Muito mais que só letras de músicas

  • Vagalume
  • A-Z
  • Estilos
  • Top 100
  • Playlists
  • Hot Spots
  • Notícias
  • PLAY

    Instrumento:
    D        F#5+     E E6 E7 E
    Vejo você de tão longe
    Gm          C         D
    Que só eu sei que é você
      Bb     C     D
    Só eu sei te ver
    D           F#5+      E E6 E7 E
    Lembro de tudo o que houve
    Gm        C     D
    De tudo que ia ver
    Bb              C
    Do que não foi nada
    Bb           C           D
    Dentro dos nadas que havia
    
    D                D7+    Gm  C
    Por que eu não esqueço nada
    D           D7+         Gm
    A não ser de te esquecer
    C             D D7+         E/G#
    Nem ao meio dia, nem de madrugada
    Bb        C    D
    Eu não esqueço nada 
    Bb            C
    Eu  não esqueci 
    
    Solo
    E---------------------------------
    A---------------------------------
    D---------------------------------
    G-----------------------3----0-2--
    B-5-3-5-3-5---5-3-0-2-3-----------
    E-----------2---------------------
    
    Nem o alívio do fim
    Nem o delírio do começo
    Nem um dia comum 
    Você me trata tão bem
    Mantem meu coração ferido
    Vou lhe fazer um pedido
    Não fique perto de mim 
    
    Por que eu não esqueço nada 
    A não ser de te esquecer
    Nem ao fim do dia 
    Nem de madrugada
    Eu não esqueço nada
    Eu não esqueci
    
    Acordes:
       D   D5aug  D7+    E6   Gm    Gm6    C    Bb    A/C#  E/G#
    |--X--|--X--|--X--|--0--|--3--|--3--|--X--|--X--|--X—-|--4--|
    |--X--|--X--|--X--|--2--|--5--|--X--|--3--|--1--|--4--|--0--|
    |--0--|--0--|--0--|--2--|--5--|--2--|--2--|--3--|--2--|--2--|
    |--2--|--3--|--2--|--1--|--3--|--3--|--0--|--3--|--2--|--4--|
    |--3--|--3--|--2--|--2--|--3--|--3--|--3--|--3--|--2--|--5--|
    |--2--|--2--|--


    Comente
    user 300 caracteres restantes. Enviar

    Todas as letras de Kid Abelha

    Publicidade
    Notícias
    Mais notícias »
    Hot Spot
    Top Músicas do Vagalume
    Top 100 »

    As informações deste site são postadas integralmente pelos usuários. É importante dizer que é possível que os dados estejam desatualizados ou incorretos, sendo assim, o Vagalume exime-se de qualquer responsabilidade sobre as informações publicadas.Caso haja interesse em remover ou alterar alguma informação, entre em contato conosco.


    É permitida somente a visualização no site das letras de músicas encontradas aqui, vedada sua reprodução através de quaisquer outros meios (Lei 9610/98).Todas as letras de músicas são propriedade dos seus respectivos autores e divulgadas somente para fins educacionais.All lyrics are property and copyright of their owners. All lyrics are provided for educational purposes only.