Muito mais que só letras de músicas

  • Vagalume
  • A-Z
  • Estilos
  • Top 100
  • Playlists
  • Hot Spots
  • Notícias
  • PLAY

    Instrumento:
    Tom: C
    		
    Intro 2x:
               Am                  F
    E|-----------------------------------------|
    B|-----------------------------------------|
    G|-----------------------------------------|
    D|----2--0------2--0------2--0------2--0---|
    A|-3---------3---------3---------3---------|
    E|-----------------------------------------|
               C                   G
    E|-----------------------------------------|
    B|-----------------------------------------|
    G|-0---------0---------0-------------------|
    D|-------0---------0---------0-------------|
    A|----3---------3---------3------3--2~-----|
    E|-----------------------------------------|
    
    
                  Am
    O que todos querem é só separar nós dois
                   F
    Você é o que quero e vou continuar te amando
                   C
    Eu não tô nem aí pro que os outros vão dizer
                   G
    O que a gente sente ninguém tem nada a ver
    
                   Am
    Todos ficam falando que eu não sirvo pra você
                       F
    Dizem que eu não presto só me meto em confusão
                    C
    Querem nos afastar e acabar com nosso amor
               G
    Tirar você de mim
    
    Ponte 2x:
               Am
    O nosso amor
                          F
    Todos querem por um fim
                      C
    Querem nos afastar
                    G
    Tirar você de mim
    
    Refrão:
              Am
    Eu amo você
                                  F
    E não me importa o que vão dizer
                    C
    Eu quero só você
                    G
    Eu quero só você
                    Am
    Eu quero só você
                                  F
    E não me importa o que vão dizer
                    C
    Eu quero só você
                    G
    Eu quero só você
                    Am
    Eu quero só você
    
    Solo 2x:
               Am                  F
    E|-----------------------------------------|
    B|-----------------------------------------|
    G|-----------------------------------------|
    D|----2--0------2--0------2--0------2--0---|
    A|-3---------3---------3---------3---------|
    E|-----------------------------------------|
               C                   G
    E|-----------------------------------------|
    B|-----------------------------------------|
    G|-0---------0---------0-------------------|
    D|-------0---------0---------0-------------|
    A|----3---------3---------3------3--2~-----|
    E|-----------------------------------------|
    
    
    Ponte 2x:
               Am
    O nosso amor
                           F
    Todos querem por um fim
                     C
    Querem nos afastar
                    G
    Tirar você de mim
    
    Refrão:
              Am
    Eu amo você
                                 F
    E não me importa o que vão dizer
                    C
    Eu quero só você
                   G
    Eu quero só você
                   Am
    Eu quero só você
                                 F
    E não me importa o que vão dizer
                    C
    Eu quero só você
                    G
    Eu quero só você
    
    Refrão:
              Am
    Eu amo você
                                 F
    E não me importa o que vão dizer..
                    C
    Eu quero só você
                   G
    Eu quero só você
                   Am
    Eu quero só você
                                 F
    E não me importa o que vão dizer
                    C
    Eu quero só você
                    G
    Eu quero só você
                   Am
    Eu quero só você
                                  F
    E não me importa o que vão dizer
                   C
    Eu quero só você
                    G
    Eu quero só você
                   Am
    Eu quero só você
    
               Am                  F
    E|-----------------------------------------|
    B|-----------------------------------------|
    G|-----------------------------------------|
    D|----2--0------2--0------2--0------2--0---|
    A|-3---------3---------3---------3---------|
    E|-----------------------------------------|
               C                   G
    E|-----------------------------------------|
    B|-----------------------------------------|
    G|-0---------0---------0-------------------|
    D|-------0---------0---------0-------------|
    A|----3---------3---------3------3--2~-----|
    E|-----------------------------------------|
    
    
               G
    Eu quero só
    
    ( Am )


    Comente
    user 300 caracteres restantes. Enviar

    Todas as letras de Jorge e Mateus

    Publicidade
    Notícias
    Mais notícias »
    Hot Spot
    Top Músicas do Vagalume
    Top 100 »

    As informações deste site são postadas integralmente pelos usuários. É importante dizer que é possível que os dados estejam desatualizados ou incorretos, sendo assim, o Vagalume exime-se de qualquer responsabilidade sobre as informações publicadas.Caso haja interesse em remover ou alterar alguma informação, entre em contato conosco.


    É permitida somente a visualização no site das letras de músicas encontradas aqui, vedada sua reprodução através de quaisquer outros meios (Lei 9610/98).Todas as letras de músicas são propriedade dos seus respectivos autores e divulgadas somente para fins educacionais.All lyrics are property and copyright of their owners. All lyrics are provided for educational purposes only.