Muito mais que só letras de músicas

  • Vagalume
  • A-Z
  • Estilos
  • Top 100
  • Playlists
  • Hot Spots
  • Notícias
  • PLAY

    Instrumento:
    (Guitarra 1)
    E|-----------------------------------|
    B|----------0-0-0-0------------------|
    G|-2-2-2-2--2-2-2-2--2-2-2-2-2-2-1-1-|   (2x)
    D|-2-2-2-2--0-0-0-0--2-2-2-2-2-2-2-2-|
    A|-------------------0-0-0-0-0-0-0-0-|
    E|-2-2-2-2---------------------------|
    (Guitarra 2)
    E|--------------------|
    B|--------------------|
    G|------7777----------|   (2x)
    D|-4444-7777-77777766-|
    A|-4444-5555-77777777-|
    E|-2222------55555555-|
    
    Verso:
    I stare at my reflection in the mirror...
    (Guitarra 1)
    E|-----------------------------------|
    B|----------0-0-0-0--------------3-3-|
    G|-2-2-2-2--2-2-2-2--2-2-2-2-2-2-2-2-|   (2x)
    D|-2-2-2-2--0-0-0-0--2-2-2-2-2-2-0-0-|
    A|-------------------0-0-0-0-0-0-----|
    E|-2-2-2-2---------------------------|
    
    Losing myself over a tiny error...
    E|----------------------------------------------------------------------|
    B|----------0-0-0-0----------------------------0-0-0-0------------------|
    G|-2-2-2-2--2-2-2-2--2-2-2-2-1-1-1-1--2-2-2-2--2-2-2-2--2-2-2-2-2-2-1-1-|
    D|-2-2-2-2--0-0-0-0--2-2-2-2-2-2-2-2--2-2-2-2--0-0-0-0--2-2-2-2-2-2-2-2-|
    A|-------------------0-0-0-0-0-0-0-0--------------------0-0-0-0-0-0-0-0-|
    E|-2-2-2-2----------------------------2-2-2-2---------------------------|
    
    (Guitarra 2)
    E|--------------------|      |----------------------------------------|
    B|--------------------|      |----------------------------------------|
    G|------7777----------| (2x) |------7777----------------7777----------|
    D|-4444-7777-77777766-|      |-4444-7777-77776666--4444-7777-77777766-|
    A|-4444-5555-77777777-|      |-4444-5555-77777777--4444-5555-77777777-|
    E|-2222------55555555-|      |-2222------55555555--2222------55555555-|
    
    Refrão:
    Don't lose who you are...
    (Guitarra 1)
    E|-----------------------------------|
    B|----------0-0-0-0------------------|
    G|-2-2-2-2--2-2-2-2--2-2-2-2-2-2-1-1-|   (6x)
    D|-2-2-2-2--0-0-0-0--2-2-2-2-2-2-2-2-|
    A|-------------------0-0-0-0-0-0-0-0-|
    E|-2-2-2-2---------------------------|
    (Guitarra 2)
    E|--------------------|
    B|--------------------|
    G|------7777----------|   (6x)
    D|-4444-7777-77777766-|
    A|-4444-5555-77777777-|
    E|-2222------55555555-|
    
    Solo:
    who you are, who you are, who you are...
    E|-----9------9------9------9---|
    B|---7------7------7-------7----|
    G|-9------9------9-------9------|   (4x)
    D|------------------------------|
    A|------------------------------|
    E|------------------------------|
    
    Verso 2:
    Brushing my hair, do I look perfect?...
    (Guitarra 1)
    E|-----------------------------------|      |-----------------------------------|
    B|----------0-0-0-0------------------|      |----------0-0-0-0------------------|
    G|-2-2-2-2--2-2-2-2--2-2-2-2-2-2-1-1-| (3x) |-2-2-2-2--2-2-2-2--2-2-2-2-1-1-1-1-|
    D|-2-2-2-2--0-0-0-0--2-2-2-2-2-2-2-2-|      |-2-2-2-2--0-0-0-0--2-2-2-2-2-2-2-2-|
    A|-------------------0-0-0-0-0-0-0-0-|      |-------------------0-0-0-0-0-0-0-0-|
    E|-2-2-2-2---------------------------|      |-2-2-2-2---------------------------|
    (Guitarra 2)
    E|--------------------|      |--------------------|
    B|--------------------|      |--------------------|
    G|------7777----------| (3x) |------7777----------|
    D|-4444-7777-77777766-|      |-4444-7777-77776666-|
    A|-4444-5555-77777777-|      |-4444-5555-77777777-|
    E|-2222------55555555-|      |-2222------55555555-|
    
    (Refrão)
    
    Ponte:
    Theirs no egos...
    (Guitarra 1)
    E|-0000-2222-2222-0000--0000-2222-22222222-|
    B|-0000-2222-3333-0000--0000-2222-33333333-|
    G|-1111-2222-2222-2222--1111-2222-22222222-|
    D|-2222-4444-0000-2222--2222-4444-00000000-|
    A|-2222-4444------0000--2222-4444----------|
    E|-0000-2222------------0000-2222----------|
    (Guitarra 2)
    E|-----------------------------------------|
    B|-----------------------------------------|
    G|-----------7777-----------------77777777-|
    D|-2222-4444-7777-7777--2222-4444-77777777-|
    A|-2222-4444-5555-7777--2222-4444-55555555-|
    E|-0000-2222------5555--0000-2222----------|
    
    that's my own...
    
    (Guitarra 1)
    E|-----------------------------------|
    B|----------0-0-0-0------------------|
    G|-2-2-2-2--2-2-2-2--2-2-2-2-2-2-1-1-|   (4x)
    D|-2-2-2-2--0-0-0-0--2-2-2-2-2-2-2-2-|
    A|-------------------0-0-0-0-0-0-0-0-|
    E|-2-2-2-2---------------------------|
    (Guitarra 2)
    E|--------------------|
    B|--------------------|
    G|------7777----------|   (4x)
    D|-4444-7777-77777766-|
    A|-4444-5555-77777777-|
    E|-2222------55555555-|
    
    Solo:
    E|-----9------9------9------9---|
    B|---7------7------7-------7----|
    G|-9------9------9-------9------|   (4x)
    D|------------------------------|
    A|------------------------------|
    E|------------------------------|
    
    (Refrão)
    
    Final:
    (Guitara 1)
    E|-----------------------------------|
    B|----------0-0-0-0------------------|
    G|-2-2-2-2--2-2-2-2--2-2-2-2-2-2-1-1-|
    D|-2-2-2-2--0-0-0-0--2-2-2-2-2-2-2-2-|
    A|-------------------0-0-0-0-0-0-0-0-|
    E|-2-2-2-2---------------------------|
    (Guitarra 2)
    E|--------------------|
    B|--------------------|
    G|------7777----------|
    D|-4444-7777-77777766-|
    A|-4444-5555-77777777-|
    E|-2222------55555555-|
    


    Comente
    user 300 caracteres restantes. Enviar

    Todas as letras de Jessie J

    Publicidade
    Notícias
    Mais notícias »
    Hot Spot
    Top Músicas do Vagalume
    Top 100 »

    As informações deste site são postadas integralmente pelos usuários. É importante dizer que é possível que os dados estejam desatualizados ou incorretos, sendo assim, o Vagalume exime-se de qualquer responsabilidade sobre as informações publicadas.Caso haja interesse em remover ou alterar alguma informação, entre em contato conosco.


    É permitida somente a visualização no site das letras de músicas encontradas aqui, vedada sua reprodução através de quaisquer outros meios (Lei 9610/98).Todas as letras de músicas são propriedade dos seus respectivos autores e divulgadas somente para fins educacionais.All lyrics are property and copyright of their owners. All lyrics are provided for educational purposes only.