Muito mais que só letras de músicas

  • Vagalume
  • A-Z
  • Estilos
  • Top 100
  • Playlists
  • Hot Spots
  • Notícias
  • PLAY

    Instrumento:
    A      REPETE 4 VEZES                       A                                            
     ----------------------------------------------------------------------------------------
     ----------------------------------------------------------------------------------------
     ----------------------------------------------------------------------------------------
     14----14-14-14-14-14-14---14---16-14-12-----14-----14-14-14-14-14-14---14---16-14-12----
     12----12-12-12-12-12-12---12---12-12-12-----12-----12-12-12-12-12-12---12---12-12-12----
     ----------------------------------------------------------------------------------------
    
     
    
     G					      D                             C      D
     ----------------------------------------------------------------------------------------
     ----------------------------------------------------------------------------------------
     ----------------------------------------------------------------------------------------
     12----12-12-12-12-12-12---12---14-12-10-------------------------------------------------
     10----10-10-10-10-10-10---10---10-10-10------12-12-12-12-12-12-12-12-12----10----12-----
     ---------------------------------------------10-10-10-10-10-10-10-10-10-----8----10-----, A5          A5         A5              A5
     Roll on the dice Take a spin on the wheel
     A5          A5         A5              A5
     Out of your hands now So how do you feel
                 G5                   D5             A5
     But you´re not gonna win You´d better go back again
    
     A5          A5         A5            A5
     Do you fell lucky Or do you feel scared
     A5          A5         A5            A5
     Take what luck brings And the devil may care
                 G5                    D5                      A5
     But you´re down on your luck And what will the next day bring
    
     
      G5                     G5     
     Adrift on the ocean Afloat in a day dream
      D5           A5       D5           A5
     Or lost in a maze Or blind in the Haze
      G5                     G5
     So what does it matter So why don´t you answer
      D5             A5       D5      A5
     So why did you send An angel to mend
    
    
      A5          A5          A5           A5 
     Best make decisions Before it´s too late
     A5               A5          A5     
     Take all your chances Take hold of the reins
         G5               D5               A5
     A roll of the dice Ahead of the game again
    
      A5       A5         A5        A5
     Nothing to lose But so much to gain
      A5       A5            A5    A5
     A little danger It goes whitout saying
           G5                     D5             A5
     But what do you care You´re gonna go in the end
    
    
                   G5                    G5
     Gate open to heaven Is ready and waiting
             D5            A5     D5           A5
     or straight down to hell Can go there as well
    
    
                    G5              G5            G5
     i´ll suffer my craving My soul´s not worth saving
         D5            A5      D5           A5
     So why don´t you go Just leave well alone
     
    
    
      A5                    A5
     Don´t you think i´m a saviour
       G5                G5
     Don´t you think I could save you
      D5           D5                   A5
     Don´t you think I could save your life
    
    
    
      A5                    A5
     Don´t you think i´m a saviour
      D5                D5
     Don´t you think I could save you
      G5           G5                   A5
     Don´t you think I could save your life
    
    
     A5                    A5
     Don´t you think i´m a saviour
       G5                G5
     Don´t you think I could save you
      D5           D5                   A5
     Don´t you think I could save your life
    
    
      A5                    A5
     Don´t you think i´m a saviour
      D5                D5
     Don´t you think I could save you
      G5           G5                   A5
     Don´t you think I could save your life
    
    
    
    
    [Intro 2 vezes]
    
    
     ----------------------------------------------------------------------------------------
     ------------------------------------------------------3---------------------------------
     -2-------------------------------------------------------2---------------------2--------
     ----2-----------------------5-------------------------------0---------------------2-----
     -------0-----------------------5-----------------------------------------------------0--
     ----------------------------------3-----------------------------------------------------
    
     Don´t you think i´m a saviour  Don´t you think I could save you  Don´t you think I could save your life
     ----------------------------------------------------------------------------------------
     ------------------------------------------------------3---------------------------------
     -2-------------------------------------------------------2---------------------2--------
     ----2-----------------------5-------------------------------0---------------------2-----
     -------0-----------------------5-----------------------------------------------------0--
     ----------------------------------3-----------------------------------------------------
     Don´t you think i´m a saviour  Don´t you think I could save you  Don´t you think I could save your life
     ----------------------------------------------------------------------------------------
     ----------------------------------------------------------------------------------------
     -2----------------------------------------------------------------2---------------------
     ----2-------------------3----------------------5---------------------2------------------
     -------0-------------------3----------------------5---------------------0---------------
     ------------------------------1----------------------3----------------------------------
     Don´t you think i´m a saviour  Don´t you think I could save you  Don´t you think I could save your life
     ----------------------------------------------------------------------------------------
     ----------------------------------------------------------------------------------------
     -2---------------------------------------------5----------------------------------------
     ----2-------------------3-------------------------5------------------5------------------
     -------0-------------------3-------------------------3------------------5---------------
     ------------------------------1--------------------------------------------3------------
    Don´t you think i´m a saviour  Don´t you think I could save you  Don´t you think I could save your life
     ----------------------------------------------------------------------------------------
     ------------------------3---------------------------------------------------------------
     -2-------------------------2---------------------------------------------2--------------
     ----2-------------------------0----------------3----------------------------2-----------
     -------0------------------------------------------3----------------------------0--------
     -----------------------------------------------------1----------------------------------
    
     Don´t you think i´m a saviour  Don´t you think I could save you  Don´t you think I could save your life
    
      A5                         G5                         D5                   A5
     Don´t you think i´m a saviour  Don´t you think I could save you  Don´t you think I could save your life
    
      A5                         F5                         G5                   A5
     Don´t you think i´m a saviour  Don´t you think I could save you  Don´t you think I could save your life
     
     gtr.1
      A5   F5   C5   G5
     gtr.2
     ----------------------------------------------------------------------------------------
     ----------------------------------------------------------------------------------------
     -2---------------------------------------------5----------------------------------------
     ----2-------------------3-------------------------5------------------5------------------
     -------0-------------------3-------------------------3------------------5---------------
     ------------------------------1--------------------------------------------3------------
    
     Don´t you think i´m a saviour  Don´t you think I could save you  Don´t you think I could save your life
     
     gtr.1
      A5   D5   F5   A5
     gtr.2
     ----------------------------------------------------------------------------------------
     ------------------------3---------------------------------------------------------------
     -2-------------------------2---------------------------------------------2--------------
     ----2-------------------------0----------------3----------------------------2-----------
     -------0------------------------------------------3----------------------------0--------
     -----------------------------------------------------1----------------------------------
    
     Fundo do 1º solo
    
      A5   G5   D5   A5
      A5   G5   D5   A5
    
     Fundo do 2º solo
    
      A5   G5   |D5 C5|   A5
      A5   G5   D5   A5
    
      A5        A5          A5              A5
     There´s like a hunger That knocks on the door
      A5        A5          A5              A5 
     You´ve had a taste of it Still you want more
             G5                       D5                A5
     You´ve made your mistakes Won´t play it the same again
    
      A5         A5         A5               A5 
     You have been warned But still you plunge in
      A5          A5         A5               A5
     You play high stakes But there´s nothing to win
             G5                   D5             A5
     You´ve only one life And so many things to learn
    
      G5           G5            G5     
     The angel on one side The Devil the other
            D5           A5       D5      A5
     Which path do you take Decisions to make
    
      G5           G5            G5 
     Arrive at the crossroads You know where you´re going
            D5           A5       D5      A5
     And what if you wait It may be too late
    
      A5   G5   D5   A5
     Don´t you think i´m a saviour  Don´t you think I could save you  Don´t you think I could save your life
    
      A5   F5   G5   A5
     Don´t you think i´m a saviour  Don´t you think I could save you  Don´t you think I could save your life
    
      A5   F5   C5   G5
     Don´t you think i´m a saviour  Don´t you think I could save you  Don´t you think I could save your life
    
      A5   D5   F5   A5
     Don´t you think i´m a saviour  Don´t you think I could save you  Don´t you think I could save your life
    
     
    [Intro 2 vezes]
    [Fim]


    Comente
    user 300 caracteres restantes. Enviar

    Todas as letras de Iron Maiden

    Publicidade
    Notícias
    Mais notícias »
    Hot Spot
    Top Músicas do Vagalume
    Top 100 »

    As informações deste site são postadas integralmente pelos usuários. É importante dizer que é possível que os dados estejam desatualizados ou incorretos, sendo assim, o Vagalume exime-se de qualquer responsabilidade sobre as informações publicadas.Caso haja interesse em remover ou alterar alguma informação, entre em contato conosco.


    É permitida somente a visualização no site das letras de músicas encontradas aqui, vedada sua reprodução através de quaisquer outros meios (Lei 9610/98).Todas as letras de músicas são propriedade dos seus respectivos autores e divulgadas somente para fins educacionais.All lyrics are property and copyright of their owners. All lyrics are provided for educational purposes only.