Muito mais que só letras de músicas

  • Vagalume
  • A-Z
  • Estilos
  • Top 100
  • Playlists
  • Hot Spots
  • Notícias
  • PLAY

    Instrumento:
    Prelúdio:
    
    Violão Solo:
    e|-15---------15--13-13--|-------15-13-13--------|-------------------|----------|
    B|----14---14------------|-12-14----------14-12--|-10-12--12-12-10-9-|-10--8-8--|
    Violão Base:
    (Am G) x2
    
    Introdução: (Am G) x6
    
    (Am G)
    Caminhando e cantando e seguindo a canção
    Somos todos iguais braços dados ou não
    Nas escolas nas ruas, campos, construções
    Caminhando e cantando e seguindo a canção
    
    Refrão:
    (Am G)                                     |
    Vem, vamos embora, que esperar não é saber | x2
    Quem sabe faz a hora, não espera acontecer |
    
    Violão Solo:
    e|---------------|-------------------|---10-9-8-7---|-7-7-6-5-5--52-2--|
    B|------7-9-9-7--|---9-7--10-109-7--|-9------------|-------------------|
    G|-7-7-----------|-7-----------------|--------------|-------------------|
    Violão Base:
    (Am G) x2
    
    (Am G)
    Pelos campos há fome em grandes plantações
    Pelas ruas marchando indecisos cordões
    Ainda fazem da flor seu mais forte refrão
    E acreditam nas flores vencendo o canhão
    
    Refrão
    
    Violão Solo:
    e|-17-17-17-17-15--|----17-15----------------------------|-----------------------------------|
    B|-----------------|-16-------16--16-16-14-12------------|-------------14-12-10----14-12-10--|
    G|-----------------|---------------------------14-14-13--|-14-14-13-11----------11-----------|
    Violão Base:
    (Am G) x2
    
    (Am G)
    Há soldados armados, amados ou não
    Quase todos perdidos de armas na mão
    Nos quartéis lhes ensinam uma antiga lição
    De morrer pela pátria e viver sem razão
    
    Refrão
    
    Violão Solo:
    e|--------------|----------15-13-13--|-------------|----------------|
    B|-14-14-14-14--|-14-14-12-----------|---9-9-9--7--|---10-9-7--5----|
    G|--------------|--------------------|-7-----------|-7-----------6--|
    Violão Base:
    (Am G) x2
    
    (Am G)
    Nas escolas, nas ruas, campos, construções
    Somos todos soldados, armados ou não
    Caminhando e cantando e seguindo a canção
    Somos todos iguais braços dados ou não
    Os amores na mente, as flores no chão
    A certeza na frente, a história na mão
    Caminhando e cantando e seguindo a canção
    Aprendendo e ensinando uma nova lição
    
    Refrão x2
    
    
    
    Correção: Eric Henrique de Souza (erichs@enersulnet.com.br)


    Comente
    user 300 caracteres restantes. Enviar

    Todas as letras de Geraldo Vandré

    Publicidade
    Notícias
    Mais notícias »
    Hot Spot
    Top Músicas do Vagalume
    Top 100 »

    As informações deste site são postadas integralmente pelos usuários. É importante dizer que é possível que os dados estejam desatualizados ou incorretos, sendo assim, o Vagalume exime-se de qualquer responsabilidade sobre as informações publicadas.Caso haja interesse em remover ou alterar alguma informação, entre em contato conosco.


    É permitida somente a visualização no site das letras de músicas encontradas aqui, vedada sua reprodução através de quaisquer outros meios (Lei 9610/98).Todas as letras de músicas são propriedade dos seus respectivos autores e divulgadas somente para fins educacionais.All lyrics are property and copyright of their owners. All lyrics are provided for educational purposes only.