Muito mais que só letras de músicas

  • Vagalume
  • A-Z
  • Estilos
  • Top 100
  • Playlists
  • Hot Spots
  • Notícias
  • PLAY

    Instrumento:
    G------------------------|-----
    D------------------------|-----
    A----------5-6666---6--5-|-10-
    E-8888---8---------------|-----
    
    Verse
    G-------------------------------------------------------------------
    D---------------------------------------1098888--876666--68---------
    A--------56666--568888--876666--68-------------------------8888---8-
    E-8888--8-------------------------8888------------------------------ x2
    
    G-------------------------------------------------------------------
    D---------------------------------------10988888-8766666-68---------
    A--------5666665-688888887666666-8--------------8-------8--8888---8-
    E-8888888-------8---------------8-888888----------------------------
    
    Pre Chorus
    (not sure if bass plays, bvut the note is a#, play 8th fret D string)
    
    Chorus(the C mite be played up an octave on 10th fret of D the 2nd time)
    G----------------------------------
    D----------------------------------
    A--------566666-5688888-8766666668-
    E-8888858------8-------8-----------
    
    Solo
    G---------------------
    D-10---10---10---10---
    A---------------------
    E---888--888--888--88- x4
    
    (repeat the last one)
    G---------------------------------|55555---------------------------
    D-------------------------66666-68|------------------------66666-68
    A--------566666-5688888568-----8--|-------566666-5688888568-----8--
    E-8888858------8------------------|-----58------8------------------


    Comente
    user 300 caracteres restantes. Enviar

    Todas as letras de Foo Fighters

    Publicidade
    Notícias
    Mais notícias »
    Hot Spot
    Top Músicas do Vagalume
    Top 100 »

    As informações deste site são postadas integralmente pelos usuários. É importante dizer que é possível que os dados estejam desatualizados ou incorretos, sendo assim, o Vagalume exime-se de qualquer responsabilidade sobre as informações publicadas.Caso haja interesse em remover ou alterar alguma informação, entre em contato conosco.


    É permitida somente a visualização no site das letras de músicas encontradas aqui, vedada sua reprodução através de quaisquer outros meios (Lei 9610/98).Todas as letras de músicas são propriedade dos seus respectivos autores e divulgadas somente para fins educacionais.All lyrics are property and copyright of their owners. All lyrics are provided for educational purposes only.