Muito mais que só letras de músicas

  • Vagalume
  • A-Z
  • Estilos
  • Top 100
  • Playlists
  • Hot Spots
  • Notícias
  • PLAY

    Instrumento:
    -======-
    
    D 
    Every now I'm running out 
    Am 
    This time I think I'm breaking up 
    D 
    Come on down, we'll take this town 
    Am 
    Tonight before it turns to dust 
    G D 
    You change and then 
    G D 
    You change again 
    Am G D 
    Turning like the wheels inside your head 
    D 
    Every now I'm drifting out 
    Am 
    This time it keeps on sinking us 
    D 
    Come on down, we'll take this town 
    C 
    Tonight before it turns to dust 
    G D 
    You change and then 
    G D 
    You change again 
    Am G D 
    Turning like the wheels inside your head 
    D Am 
    Overdrive, I'm going life or death 
    D C 
    Overdrive, I'm going life or death 
    D Am 
    Overdrive, I'm going life or death 
    G D 
    Keep hanging by a thread 
    G D 
    There's a lie, I think you'll find 
    Am G D 
    It's locked inside of everyone 
    
    
    Contribuição: Peterson Reinan Alves(petersonreinan@databyte.com.br)
    
    
    
    
    
    Versão 2
    -======-
    
    ::Chords::
    
    D  - (xx0232)
    D9 - (xx0230)
    G  - (320033)
    Am - (x02210)
    A4 - (x02230)
    
    Intro
    =====
    
       D9                        A4
    e|-------------------------------|
    B|-------------------------------|
    G|-------------------------------|
    D|-2/4--2--0-----------0-----0h2-|
    A|------------2--0--2-----2------|
    E|-------------------------------|
    
       D9                        A4
    e|-------------------------------|
    B|-------------------------------|
    G|-------------------------------|
    D|-2/4--2--0-----------0---------|
    A|------------2--0--2-----2--0---|
    E|-------------------------------|
    
       D9                        Am
    e|-------------------------------|
    B|-------------------------------|
    G|-------------------------------|
    D|-2/4--2--0-----------0-----0h2-|
    A|------------2--0--2-----2------|
    E|-------------------------------|
    
             G -> during the slide
    e|----------------------------0--|
    B|----------------------------3--|
    G|-------7/---9/--11/---12----2--|
    D|--2/4-----------------------0--|
    A|-------5/---7/---9/---10-------|
    E|-------------------------------|
    
    
    Verse (Second guitar: use power chords) 
    =====
    
    D9 Am D9 Am
    
    G  D  G  D
    
    Am G  D
    
    
    
    Chorus (Second guitar: use the same chords)
    ======
    
    (same chords of intro, without the solo, but the last slide)
    
    
    Outro 
    =====
    
       G               D
    e|---5-----5-----5---5-----5-----5-|
    B|-8---8-----8-----7---7-----7-----|        
    G|-------7-----7---------7-----7---|    ---- 
    D|---------------------------------|    ---- /   x 4
    A|---------------------------------|        /
    E|---------------------------------|
    
    
       Am                G             D
    e|--------8----------------7-------2---5/7--5--3--2-----5-|
    B|---10-----10---------8-----8-----3-----------------3--7-|
    G|-9----9------9-----7---7-----7---2--------------------7-|
    D|--------------------------------------------------------|
    A|--------------------------------------------------------|
    E|--------------------------------------------------------|
    
    
    
    Last Chorus
    ===========
    
       D9                        A4
    e|-------------------------------|
    B|-------------------------------|
    G|-------------------------------|
    D|-2/4--2--0-----------0-----0h2-|
    A|------------2--0--2-----2------|
    E|-------------------------------|
    
       D9                        A4
    e|-------------------------------|
    B|-------------------------------|
    G|-------------------------------|
    D|-2/4--2--0-----------0---------|
    A|------------2--0--2-----2--0---|
    E|-------------------------------|
    
       D9                        Am
    e|-------------------------------|
    B|-------------------------------|
    G|-------------------------------|
    D|-2/4--2--0-----------0-----0h2-|
    A|------------2--0--2-----2------|
    E|-------------------------------|
    
             G -> during the slide
    e|------------------------------------------|
    B|------------------------------------------|
    G|-------7/---9/--11/---12---7/---9/---11/--|
    D|--2/4-------------------------------------|
    A|-------5/---7/---9/---10---5/---7/----9/--|
    E|------------------------------------------|
    
    e|-------------------------------------------------------0-|
    B|-------------------------------------------------------3-|
    G|--12---14/---12/---11/---9---14/---16/---17/---16------2-|
    D|-------------------------------------------------------0-|
    A|--10---12/---10/----9/---7---12/---14/---15/---14--------|
    E|---------------------------------------------------------|


    Comente
    user 300 caracteres restantes. Enviar

    Todas as letras de Foo Fighters

    Publicidade
    Notícias
    Mais notícias »
    Hot Spot
    Top Músicas do Vagalume
    Top 100 »