Muito mais que só letras de músicas

  • Vagalume
  • A-Z
  • Estilos
  • Top 100
  • Playlists
  • Hot Spots
  • Notícias
  • PLAY

    Instrumento:
    Com pouca distorção
    
       B ----------|-------|----------------------|---4-----|---------|----------|-4---|
       G ------3---|---3---|-3h4--6--4--3---------|-4---4h6-|-6b--4h6-|-8h6--6p8-|---3-|
       D ----6---6-|-6---6-|--------------6--4--6-|---------|---------|----------|-----|
       A --6-------|-------|----------------------|---------|---------|----------|-----|
    
       B ---4h5--4---|-------------------------|------------------------|-------|
       G -4--------6-|-4p3h4--6--4--3----------|-6v--4--6--4--3---------|---4---|
       D ------------|----------------6p4h6--6-|----------------6--4--6-|-4---6-|
       
       e ------------|--------|-----------|-4p2--1--2---|---------------|-------------|
       B ------------|-4v5v7v-|-7p6---6---|-----------4-|---------------|---4h5--4----|
       G -8h6--6-----|--------|-----8-----|-------------|-4v--6--4--3---|-4---------6-|
       D -6------6h8-|--------|---------8-|-------------|-------------6-|-------------|
    
       B -4--7b--7--4-----------|----------------------|---4-----|-----------4---|
       G -------------6--4------|-3h4--6--4--3---------|-4---4h6-|-------3h4---6-|
       D ------------------6--6-|--------------6--4--6-|---------|-----6---------|
       A -----------------------|----------------------|---------|-4h6-----------|
                                                     E
       B ---------7-|--------------|-5p4-----4---|-------|-----4--7b--7p5--5-|
       G -4--6--8---|-3h4p3---4--6-|-----6p4---6-|-------|---4---------------|
       D -----------|-------6------|-------------|-------|-6-----------------|
    
       e -----------------|-4--7--4---------|---2---2---2h4-|-------------------|
       B -7b--7--4--4--7b-|---------7--5--5-|-4---4---4-----|-7--4--------------|
       G ----------4------|-----------------|---------------|------6--4---------|
       D -----------------|-----------------|---------------|-----------6--4--6-|
    
       B ----------------|---4-----|-4vvvvvvvvvvv-|-----|-4v5v7v-|-9b--9--7h9p7-|
       G -4--6--7b--6--4-|-4---4h6-|----6--4--3---|-----|--------|--------------|
       D ----------------|---------|------------6-|-6h8-|--------|--------------|
       A ----------------|---------|--------------|-6---|--------|--------------|
    
       e -4b--4--2--4--6--4--2--4/8-|-2-|-----------------|-----------------------|
       B ---------------------------|---|-5--4---4h5--4---|-7b--7--4--------------|
       G ---------------------------|---|------4--------6-|----------6--4---------|
       D ---------------------------|---|-----------------|---------------6--4--6-|
    
       e ---4-2h4-|-4--7-4---4-----|-4-----------|----------------|---------------2/42-|
       B -4-------|--------7---5h7-|---7-5p4-----|-7------------5-|-----4---------2/42-|
       G ---------|----------------|---------6-6-|-6b--6--4-----4-|-----4-------4-------|
       D ---------|----------------|-------------|----------6-6---|-4h6---6p4h6---------|
                 2X
       e -4---4--6--7--7-|-7b-7--4--------------|
       B ---4------------|---------7--4---------|
       G ----------------|--------------6--4----|
       D ----------------|--------------------6-|
    
    
    
       Está faltando um pedaço porque essa é a versão do CD Sultans of Swing - The Very Best of Dire Straits. Nesse CD eles cortam uma parte da musica.
    
    
    
    
    GUITARRA BASE:
    
           G#m                E    F#
           These mist covered montains
    
                               B  E  B
           Are a home now for me
    
                             G#m        D#M
           But my home is the lowlands
    
                              E   F#
           And always will be
    
                            G#m    D#m
           Some day you'll return to
    
                                      E  C#m  F#
           Your valleys and your farms
           
                                  B
           And you'll no longer burn
    
                  E            F#
           To be brothers in arms
    
    
           SOLO  (G#m E C#m)
    
    
           G#m                      D      F#
           Though these fields of destruction
    
                          B E B
           Baptism of fire
    
                                 G#m     D#m
           I've watched all your suffring
    
                                E     F#
           As the better roged higher
    
                           G#m            D#m
           And trough they did hurt me so bad
    
                                 E C#m F#
           In the fear and alarm
    
                          B
           You did not desert me
    
               E           F#
           My brothers in arms
    
           
           SOLO (G#m E C#m)
    
           G#m   F#               G#m  B  F#
           These many different worlds
    
               B              E   F#
           So many different suns
    
                                 G#m  B  F#
           And we home just one world
    
                   B                 E
           But we line in different ones
    
    
           SOLO (G#m E F#m)
    
           G#m                   E    F#
           Now the sun's gone to hell
    
                                 B    E   B
           And the moon's riding high
    
                             G#m   D#m
           Let me bid you forewell
    
                            E   C#m  F#
           Every man has to die
    
                                G#m      D#m
           But it's written in the starlight
    
                                  E    F#
           And every line on your palm
    
                               B
           We're falls to make war
    
                  E           F#
           On our brothers in arms
    
    
          
    
       h  hammer on
       p  pull off 
        / slide
       b  bend
       v  vibrato


    Comente
    user 300 caracteres restantes. Enviar

    Todas as letras de Dire Straits

    Publicidade
    Notícias
    Mais notícias »
    Hot Spot
    Top Músicas do Vagalume
    Top 100 »

    As informações deste site são postadas integralmente pelos usuários. É importante dizer que é possível que os dados estejam desatualizados ou incorretos, sendo assim, o Vagalume exime-se de qualquer responsabilidade sobre as informações publicadas.Caso haja interesse em remover ou alterar alguma informação, entre em contato conosco.


    É permitida somente a visualização no site das letras de músicas encontradas aqui, vedada sua reprodução através de quaisquer outros meios (Lei 9610/98).Todas as letras de músicas são propriedade dos seus respectivos autores e divulgadas somente para fins educacionais.All lyrics are property and copyright of their owners. All lyrics are provided for educational purposes only.