Muito mais que só letras de músicas

  • Vagalume
  • A-Z
  • Estilos
  • Top 100
  • Playlists
  • Hot Spots
  • Notícias
  • Play
    PLAY


    * na parte do riff1b quase não dá pra entender
    nada. só ouvindo a música

    riff1 riff1a
    e|--------------------------|-------------|
    B|--------------------------|-------------|
    G|--------7--6---------7--9-|--------7--9-|
    D|--------5--4---------5--7-|--------5--7-|
    A|-9-9-9--------9-9-9-------|-9-9-9-------|
    E|-7-7-7--------7-7-7-------|-7-7-7-------|


    riff1b
    e|-------------------|
    B|-------------------|
    G|----7--6------7--9-|
    D|----5--4------5--7-|
    A|-9---------9-------|
    E|-7---------7-------|

    (riff1)
    Enquanto pessoas passam fome (Mais armas? não!)
    A guerra destrói o homem (Mais armas? não!)
    O povo luta pra sobreviver (Mais armas? não!)
    O governo quer a guerra
    O que importa é o poder

    (riff1a)
    É o poder

    (riff1b)
    Você já pensou nas pessoas que sofrem
    Nas crianças que nascem
    E nas crianças que morrem
    Tenha consciência: As armas são para destruir.
    Não cause uma guerra
    Você também vai se ferir

    (riff1)
    Mais armas? não!...

    __________________________________________________

    Comente
    user 300 caracteres restantes. Enviar

    Todas as letras de Devotos

    Publicidade
    Notícias
    Mais notícias »
    Hot Spot
    Top Músicas do Vagalume
    Top 100 »

    As informações deste site são postadas integralmente pelos usuários. É importante dizer que é possível que os dados estejam desatualizados ou incorretos, sendo assim, o Vagalume exime-se de qualquer responsabilidade sobre as informações publicadas.Caso haja interesse em remover ou alterar alguma informação, entre em contato conosco.


    É permitida somente a visualização no site das letras de músicas encontradas aqui, vedada sua reprodução através de quaisquer outros meios (Lei 9610/98).Todas as letras de músicas são propriedade dos seus respectivos autores e divulgadas somente para fins educacionais.All lyrics are property and copyright of their owners. All lyrics are provided for educational purposes only.