Muito mais que só letras de músicas

  • Vagalume
  • A-Z
  • Estilos
  • Top 100
  • Playlists
  • Hot Spots
  • Notícias
  • PLAY

    Instrumento:
    -======-
    
    Intro: 
    Guitarra 1 faz a sequencia
    B5   A5   G5   D5
    
    Guitarra 2 faz a sequencia abaixo em (Oitavas)
    
    e|-------------------------------------------------------------|
    B|-------------------------------------------------------------|
    G|--11-11-11-11--9-9-9-11-9--7-7-9-7-9-7--7-9-7-9-11-11-12-11--|
    D|--x--x--x--x---x-x-x-x--x--x-x-x-x-x-x--x-x-x-x-x--x--x--x---|
    A|--9--9--9--9---7-7-7-9--7--5-5-7-5-7-5--5-7-5-7-9--9--10-9---|
    E|-------------------------------------------------------------|
    
    e|-------------------------------------------------------------|
    B|-------------------------------------------------------------|
    G|--12--14-14-14-14--14--12--11--7-7-7-7-----------------------|
    D|--x---x--x--x--x---x---x---x---x-x-x-x-----------------------|
    A|--9---12-12-12-12--12--10--9---5-5-5-5-----------------------|
    E|-------------------------------------------------------------|
    
                   Bm               A      G            D
    Ainda vou te levar pra outro lugar alem do sol do mar
                    Bm          A        G              D
    Onde eu possa te ter, te amar e o tempo vai ser maior
    
                               Gm    F#m   Em            D
    não te quero assim tão longe, tanto quanto o céu do mar 
                       Gm     F#m    Em             D 
    Quero ter você mais perto, certo, pronto pra te amar 
    
                   Bm               A      G            D
    Ainda vou te levar pra outro lugar alem do sol do mar
                    Bm          A        G              D
    Onde eu possa te ter, te amar e o tempo vai ser maior
    
                       Gm    F#m   Em             D 
    Quero ter o teu encanto, tanto, pra me enfeitiçar 
                    Gm    F#m   Em            D 
    Quero ter você mais perto, pra poder te amar 
    
    Solo:(Bm,A,G,D)
    e|--9h10-9-------------------9-10-9-------------------------------------------|
    B|----------12-10------12~----------10---10-10b-10-10b-10-7-------------------|
    G|-----------------11---------------------------------------------------------|
    D|----------------------------------------------------------------------------|
    A|----------------------------------------------------------------------------|
    E|----------------------------------------------------------------------------|
    
    e|--9h10-9-------------------10-12b--10----17b-17--15-14---12h14--12----10----|
    B|----------12-10------/12----------------------------------------------------|
    G|-----------------11---------------------------------------------------------|
    D|----------------------------------------------------------------------------|
    A|----------------------------------------------------------------------------|
    E|----------------------------------------------------------------------------|
    
    
                                
    DEPOIS DO SOLO VEM ISSO
    RIFF1
    e|----------2-----0---------0------0------------------------------|
    B|-----3---3---3--------2--2-----2---2----------------------------|
    G|---4---4------4-----4--4-----2-------2--------------------------|
    D|--4--------4------4---------2---------2-------------------------|
    A|----------------------------------------------------------------|
    E|----------------------------------------------------------------|
    RIFF2 
    
    e|-2-----0------2----0--------------------------------------------|
    B|---3-----3------3----2------------------------------------------|
    G|-----4-----4------2-----2---------------------------------------|
    D|----------------------------------------------------------------|
    A|----------------------------------------------------------------|
    E|----------------------------------------------------------------|
    
    
    RIFF2 você FAS ATÉ QUANDO FALAR FALTOU AR
    (Bm G D A)
    Eu podia até tentar acreditar nessa ilusão, não sei porque, viagem errada então 
    O meu caminho me levava a acreditar, que eu estava certo
    Que eu era esperto e coisa e tal 
    Cara sinistro da zona sul, andando com um monte de santinha pra la e para ca,
    Mas com você foi diferente, foi de primeira, quando eu te vi até me faltou ar
     
    (Bm G D A7/11 ou A)
    As oportunidades nessa vida me fazem crer,
    Que quando estamos frente a frente, so eu e você,
    O tempo passa tudo e mais fácil, difícil e esquecer o que eu passo quando você se vai
    Eu fico aqui bolando planos mirabolantes, fico inconstante, pareço iniciante
     D                                               A7/11 (só 1 vez)         G (só 1 vez)
    Eu vou fazer de tudo pra trazer você pra perto de mim, pode acreditar que sim!
    
                   Bm               A      G            D
    Ainda vou te levar pra outro lugar alem do sol do mar
                    Bm          A        G              D
    Onde eu possa te ter, te amar e o tempo vai ser maior
                   Bm               A      G            D
    Ainda vou te levar pra outro lugar alem do sol do mar
                    Bm          A        G              D
    Onde eu possa te ter, te amar e o tempo vai ser maior
    
    e|-------------------------------------------------------------|
    B|-------------------------------------------------------------|
    G|--11-11-11-11--9-9-9-9-11--7-7-7-9-7--9-9-9-9-11--9-9-9-9----|
    D|--x--x--x--x---x-x-x-x-x---x-x-x-x-x--x-x-x-x-x---x-x-x-x----|
    A|--9--9--9--9---7-7-7-7-9---5-5-5-7-5--7-7-7-7-9---7-7-7-7----|
    E|-------------------------------------------------------------|
    
    e|-------------------------------------------------------|
    B|-------------------------------------------------------|
    G|--11-11-11-11-11-12-11-11--14-14-14-14--14--12--11--7--|
    D|--x--x--x--x--x--x--x--x---x--x--x--x---x---x---x---x--|
    A|--9--9--9--9--9--10-9--9---12-12-12-12--12--10--9---5--|
    E|-------------------------------------------------------|
    
    E|-------------------------------|
    B|-------------------------------|
    G|--14--12--11--7~~--7-9-11-7~~--|
    D|--x---x---x---x~~--x-x-x--x~~--|
    A|--12--10--9---5~~--5-7-9--5~~--|
    E|-------------------------------|
    
    A7/11: x02030
    
    
    
    
    
    
    Versão 2
    -======-
    
     
    Intro: Bm A G D (2x)
    
                   Bm              A
    Inda vou te levar pra outro lugar
      G             D
    Além do sol do mar
                       Bm       A
    Aonde eu possa te ter, te amar
         G               D*
    E o tempo vai ser maior
    
                            Gm
    Não te quero assim tão longe
     F#m     Em             D
    Tanto, quanto o céu do mar
                         Gm
    Quero ter você mais perto
     F#m     Em               D*
    Certo, pronto pra te amar
    
                   Bm              A
    Inda vou te levar pra outro lugar
      G             D
    Além do sol do mar
                       Bm       A
    Aonde eu possa te ter, te amar
         G               D*
    E o tempo vai ser maior
    
                       Gm
    Quero ter o teu encanto
     F#m     Em           D
    Tanto, pra me enfeitiçar
                        Gm
    Quero ter você mais
     F#m     Em           D*
    Perto, pra poder te amar
    
    (Solo) Base = Bm A G D (2x)
    
    Instrumental = Bm G D A (1x)
    
    Bm                                        G
      Eu podia até tentar acreditar nessa ilusão não sei porque
                       D
    Viajo errado então
                                                     A
    O meu caminho me levava a acreditar que eu tava certo
    Que eu era esperto e coisa e tal
    Bm
      Cara sinistro da zona sul
       G
    Andando com um monte de santinha pra lá e pra cá
    D                                      A
      Mas com você foi diferente, foi de primeira quando eu te vi
    até me faltou ar
       Bm
    As oportunidades desta vida me fazem crer
    G
      Que quando estamos frente-a-frente só eu e você
    D
      O tempo passa tudo é mais fácil
       A
    Difícil é esquecer o que eu faço quando você se vai
    Bm
      Fico aqui bolando planos mirabolantes
    G
      Fico inconstante, pareço iniciante
        D                                              A*
    Eu vou fazer de tudo pra trazer você pra perto de mim
                            G*
    Pode acreditar que sim!
    
                   Bm              A
    Inda vou te levar pra outro lugar
      G             D
    Além do sol do mar
                       Bm       A
    Aonde eu possa te ter, te amar
         G               D
    E o tempo vai ser maior
    
                   Bm              A
    Inda vou te levar pra outro lugar
      G             D
    Além do sol do mar
                       Bm       A
    Aonde eu possa te ter, te amar
         G                D
    E o tempo vai, ser maior
    
    Final: Bm A G D
           Bm A G
           D-C-Bm-G*
           G-A-Bm-G*


    Comente
    user 300 caracteres restantes. Enviar

    Todas as letras de Detonautas

    Publicidade
    Notícias
    Mais notícias »
    Hot Spot
    Top Músicas do Vagalume
    Top 100 »

    As informações deste site são postadas integralmente pelos usuários. É importante dizer que é possível que os dados estejam desatualizados ou incorretos, sendo assim, o Vagalume exime-se de qualquer responsabilidade sobre as informações publicadas.Caso haja interesse em remover ou alterar alguma informação, entre em contato conosco.


    É permitida somente a visualização no site das letras de músicas encontradas aqui, vedada sua reprodução através de quaisquer outros meios (Lei 9610/98).Todas as letras de músicas são propriedade dos seus respectivos autores e divulgadas somente para fins educacionais.All lyrics are property and copyright of their owners. All lyrics are provided for educational purposes only.