Muito mais que só letras de músicas

  • Vagalume
  • A-Z
  • Estilos
  • Top 100
  • Playlists
  • Hot Spots
  • Notícias
  • PLAY

    Instrumento:
    Soar o acorde, em seguida solar.
         C#m         A7M  C#m            F#7 C#m         A7M  A7M        A7M
    
    e|---4-5-5/7-5-4------4-5-5/7-5-4--------4-5-5/7-5-4----------------------------|
    B|---------------5-----------------------------------5----5/7--5-----5/7--5-----|
    G|-----------------------------------6------------------------------------------|
    D|------------------------------------------------------------------------------|
    A|------------------------------------------------------------------------------|
    E|------------------------------------------------------------------------------|
    
    C#m           A7M
    Tento te encontrar 
    C#m         F#7
    Tanto pra dizer 
    C#m     A7M     C#m A7M
    Meu amor, tudo bem 
    
    C#m          A7M
    Sorte de nós dois 
          C#m        F#7
    Quero te fazer feliz 
    C#m      A7M      C#m  A7M
    Meu amor, sempre quis 
    
    
    (Refrão)
    C#m                       A7M
    Seus olhos certos mas não sei o que dizer 
    F#7              A7M
    Eu não vou mas o tempo vem 
    C#m                    A7M
    Ta tudo certo mais não sei o que dizer
    F#7              A7M                C#m A7M C#m A7M C#m
    Eu não vou mas o tempo vem aqui .
    
    C#m           A7M
    Tento te encontrar 
    C#m         F#7
    tanto pra dizer 
    C#m      A7M    C#m A7M
    Meu amor, tudo bem 
    
    (repete a mesma sequencia acima)
    Mesmo sem te ver 
    Não chegou ao fim 
    Seu amor, Tudo em mim .
    
    E      B   C#m         A7M
    Se não for mais do que tento ser 
    E      B   A
    Se não for mais 
    
    C#m B  A           (REPETE 4 VEZES NESSA VOCALIZAÇÃO)
    La, la, la rá..... 
    
    (Refrão)
    C#m                       A7M
    Seus olhos certos mas não sei o que dizer 
    F#7              A7M
    Eu não vou mas o tempo vem 
    C#m                    A7M
    Ta tudo certo mais não sei o que dizer
    F#7              A7M                
    Eu não vou mas o tempo vem aqui .     (riff)
    
    
    riff
         C#m B   C#m A                        
    e|-----------------------------------------------|   |
    B|-----------------------------------------------|   |
    G|----98-----9-6----98-----9-6-----------------|   | Repete 2 vezes
    D|-----------------------------------------------|   |
    A|-----------------------------------------------|   |
    E|-----------------------------------------------|   /
    


    Comente
    user 300 caracteres restantes. Enviar

    Todas as letras de Detonautas

    Publicidade
    Notícias
    Mais notícias »
    Hot Spot
    Top Músicas do Vagalume
    Top 100 »

    As informações deste site são postadas integralmente pelos usuários. É importante dizer que é possível que os dados estejam desatualizados ou incorretos, sendo assim, o Vagalume exime-se de qualquer responsabilidade sobre as informações publicadas.Caso haja interesse em remover ou alterar alguma informação, entre em contato conosco.


    É permitida somente a visualização no site das letras de músicas encontradas aqui, vedada sua reprodução através de quaisquer outros meios (Lei 9610/98).Todas as letras de músicas são propriedade dos seus respectivos autores e divulgadas somente para fins educacionais.All lyrics are property and copyright of their owners. All lyrics are provided for educational purposes only.