Muito mais que só letras de músicas

  • Vagalume
  • A-Z
  • Estilos
  • Top 100
  • Playlists
  • Hot Spots
  • Notícias
  • Play
    PLAY

    INTRO:

    e|------------------------------|
    B|------------------------------|
    G|------------------------------|
    D|------------------------------|
    A|-12/0-------------------------|
    E|------------------------------|

    -Riff 1
    e|------------------------------|
    B|------------------------------|
    G|------------------------------|
    D|------------------------------|
    A|---7—6H5----------------------|
    E|-0--------77-6--0-3-3-0-------|



    -Riff 2-- esse riff se usa nos versos iniciais, logo depois do riff 1.

    e|---------------------------------------------|
    B|---------------------------------------------|
    G|---------------------------------------------|
    D|---------------------------------------------|
    A|---7—6H5-----------------7-6H5---------------|
    E|-0--------77-6--0-3-3-0---------77-6-0-15----|

    e|---------------------------------------------|
    B|---------------------------------------------|
    G|---------------------------------------------|
    D|---------------------------------------------|
    A|---7—6H5-----------------7-6H5---------------|
    E|-0--------77-6--0-3-3-0---------77-6-0-3-----|


    -Riff 1
    Tão dizendo por ai que eu ando muito estressado
    Minha vida mudou me perdi tô bolado
    Tenho que manter a mente o tempo todo alerta
    Mas eu não tô conseguindo fazer a coisa certa

    -RIFF 2

    Não...

    (refrão)

    C5 D5 Em
    Vá ver o sol, Vá ver o mar

    C5 D5 E5
    Evaporar toda essa dor

    -RIFF 3--mesma coisa que o riff 2, só que são duas veses:
    e|---------------------------------------------|
    B|---------------------------------------------|
    G|---------------------------------------------|
    D|---------------------------------------------|
    A|---7—6H5-----------------7-6H5---------------|
    E|-0--------77-6--0-3-3-0---------77-6-0-3-----|
    - 2x
    e|---------------------------------------------|
    B|---------------------------------------------|
    G|---------------------------------------------|
    D|---------------------------------------------|
    A|---7—6H5-----------------7-6H5---------------|
    E|-0--------77-6--0-3-3-0---------77-6-0-15----|


    E com 5 minutos de conversa eu já estou discutindo
    Porque odeio pensar que os outros estão achando que eu tô mentindo
    E quando eu falo alto e alguém pede pra baixar o tom
    Eu sei que estou errado mas nem sempre consigo ser bom
    Eu tô pensando seriamente em procurar um psiquiatra
    Já estão quase me convencendo de que estou ficando louco
    Mas eu não posso ficar quieto quando me chama de babaca
    Eu preciso me livrar desse sufoco

    Refrão ( idem refrão 1 )

    Solo (esse eu vo fica te deveno mas eu to tirano)

    -RIFF 3

    E sai da frente que atrás vem gente eu tô impaciente e seja como for
    Já não me importo mais com porra nenhuma porque eu tô sem grana
    E minha mulher me abandonou
    E melhor vc tomar cuidado porque eu ando armado e estou descontrolado
    E não me vem com este papo de calma porque este é meu trauma eu já vendi
    A alma

    Esta passagem ele usa um pedalzinho de Flanger.. entre o "C" com o "D"!!

    Refrão ( idem refrão 1 )

    -RIFF 1

    Se você não está preparado para aprender com a derrota
    Com tudo a seu favor você se encontra perdido
    É melhor repensar a vida meu camarada
    Caso contrário vai continuar fudido


    Comente
    user 300 caracteres restantes. Enviar

    Todas as letras de Detonautas

    Publicidade
    Notícias
    Mais notícias »
    Hot Spot
    Top Músicas do Vagalume
    Top 100 »

    As informações deste site são postadas integralmente pelos usuários. É importante dizer que é possível que os dados estejam desatualizados ou incorretos, sendo assim, o Vagalume exime-se de qualquer responsabilidade sobre as informações publicadas.Caso haja interesse em remover ou alterar alguma informação, entre em contato conosco.


    É permitida somente a visualização no site das letras de músicas encontradas aqui, vedada sua reprodução através de quaisquer outros meios (Lei 9610/98).Todas as letras de músicas são propriedade dos seus respectivos autores e divulgadas somente para fins educacionais.All lyrics are property and copyright of their owners. All lyrics are provided for educational purposes only.