Muito mais que só letras de músicas

  • Vagalume
  • A-Z
  • Estilos
  • Top 100
  • Playlists
  • Hot Spots
  • Notícias
  • PLAY

    Instrumento:
    introverse
    -------
    D|--------------------------------
    A|-----9-9-9-9-9-9-9-9/12-12-12-12
    F|--------------------------------  play twice
    C|-----7-7-7-7-7-7-7-7/10-10-10-10
    G|--------------------------------
    C|--------------------------------
    
    chorus
    ---------
    
    D|-------------------------------------------------------
    A|---------9--9----------9--9----------9--9-/-12-12-12-12
    F|-------------------------------------------------------
    C|-1-0--0--7--7--1-0--0--7--7--1-0--0--7--7-/-10-10-10-10
    G|-1-0--0--------1-0--0--------1-0--0--------------------
    C|-1-0--0--------1-0--0--------1-0--0--------------------
           P.M   x       P.M   x       P.M   x
    
    where ever there is an X quiet all strings with you palm
    
    interlude
    ---------
    
    D|--------------------------------
    A|--------------------------------
    F|--------------------------------
    C|---0------5/7-----7/5-----5/1---
    G|---0------5/7-----7/5-----5/1---
    C|---0------5/7-----7/5-----5/1---
    
    this is just the chord progression, listen to the song to get the rythm
    


    Comente
    user 300 caracteres restantes. Enviar

    Todas as letras de Deftones

    Publicidade
    Notícias
    Mais notícias »
    Hot Spot
    Top Músicas do Vagalume
    Top 100 »

    As informações deste site são postadas integralmente pelos usuários. É importante dizer que é possível que os dados estejam desatualizados ou incorretos, sendo assim, o Vagalume exime-se de qualquer responsabilidade sobre as informações publicadas.Caso haja interesse em remover ou alterar alguma informação, entre em contato conosco.


    É permitida somente a visualização no site das letras de músicas encontradas aqui, vedada sua reprodução através de quaisquer outros meios (Lei 9610/98).Todas as letras de músicas são propriedade dos seus respectivos autores e divulgadas somente para fins educacionais.All lyrics are property and copyright of their owners. All lyrics are provided for educational purposes only.