Muito mais que só letras de músicas

  • Vagalume
  • A-Z
  • Estilos
  • Top 100
  • Playlists
  • Hot Spots
  • Notícias
  • PLAY

    Instrumento:
    -======-
    
    e|-6-6-5-5--|
    B|-6-6-6-6--|
    G|----------|
    D|----------|
    A|----------|
    E|----------|
    
    2ª Parte
    
    e|--3-------3------|
    B|----3-3-3---3----|
    G|--------------3--|
    D|-----------------|
    A|-----------------|
    E|-----------------|
    
    (G|-A#-F-D|-C)
    solidão, caminhar,
    espero um dia te ver mudar.
    essa vida são escolhas sem direção,
    nada é linear.
    
    (G|-A#-F-D|-C)
    continuar, sobreviver,
    pode ser muito cedo pra entender...
    idéias em comum se tornam divisão,
    caminhos opostos que se encontram ou não.
    
    (A#-F-D|-F-C)
    até que um dia amanhecer
    e você vir a perceber.... 
    até que um dia se levantar.... 
    semelhança e diferença nos fizeram paralisar... 
    e fingimos esquecer o que passou ... 
    
    (G|-A#-F-D|-C)
    não há futuro, não há passado, 
    tudo que se foi ou que virá. 
    só existe um sentimento teu por mim, 
    estagnado odiar... 
    
    (G|-A#-F-D|-C)
    e não se ver, e não sentir 
    que o fardo em sua costas te impede de existir. 
    deixar escapar o que é melhor, 
    a chama em seu olho apagou. 
    
    (A#-F-D|-F-C)
    até que um dia amanhecer 
    e você finalmente perceber... 
    até que um dia se levantar ... 
    que nossas semelhanças nos façam caminhar e observar,
    e que um dia você possa
    me ver em ti (se ver em mim). 
    
    (A|-F)
    juntos estar em ação,
    poder dizer um dia união,
    
    E|-----------------|
    B|-----------------|
    G|-----9h10p9------|
    D|--10-------------|
    A|-----------------|
    E|-----------------|
    no presente existir,
    porque a vida é curta e preciso agir
    
    A# = X13XXX
    F = 13XXXX
    G = 35XXXX
    D = X57XXX
    C = X35XXX
    
    Contribuição: Alberto Guerra Valadares(betaum@galoforte.com.br)
    Correção: Helloween (anjozero@msn.com)
    Correção: Mickael Duarte (mickayank@brturbo.com) rlo Chioccola
    Correção: Ary de Almeida Neto (ary14@ig.com.br)
    
    
    
    
    Versão 2
    -======-
    
    Parece que nessa musica tem 3 guitarras
    A=Murilo B=Philippe C=???
    
    # intro1 #A 
    E|-----------------------------------------|
    B|-----------------------------------------|
    G|-----------------------------------------|
    D|-----------------------------------------|
    A|-----------------------------------------|
    E|-------quiet!!!--------------------------|
    
    # intro1 #B
    E|--6655------6655------6655------6655-----|
    B|--6666------6666------6666------6666-----|
    G|--5555------5555------5555------5555-----|
    D|-----------------------------------------|
    A|-----------------------------------------|
    E|-----------------------------------------|
    
    # intro2 #A *=tocar 12x
    E|-------------------3-----3---------------|
    B|-------*-------*-----333---3-------------|
    G|---*--3----*--5--------------3-----------|
    D|--5---3---3---5---/----4X---------------|
    A|--5---1---3---3--------------------------|
    E|--3-------1------------------------------|
    
    # intro2 #B X2
    E|--5-6655665566556655665566556655665------|
    B|--6-6666666666666666666666666666666------|
    G|--5-5555555555555555555555555555555------|
    D|-----------------------------------------|
    A|-----------------------------------------|
    E|-----------------------------------------|
    
    # pre-verse #A <=pick-slide
    E|-------------------------------------------------|
    B|-------------------------------------------------|
    G|-------------------------------------------------|
    D|----------------------------------------<<<<<<---|
    A|----------------------------------------<<<<<<---|
    E|-------quiet!!!----------------------------------|
    
    # pre-verse #B *=play 8x
    E|-/------------palm-muted------------------------|
    B|-------*-------*-----------------*---------------|
    G|---*--3----*--7---5-5--------*--3----*--77--55---|
    D|--5---3---3---7---5-5--5----5---3---3---77--55---|
    A|--5---1---3---5---3-3--20---5---1---3---55--33---|
    E|--3-------1-----------------3-------1------------|
    
    # verso #A&B X2 *=tocar 6x #=tocar 3x
    E|---------------------------------|
    B|-------*-------#---#-------------|
    G|---*--3----*--7---5--------------|
    D|--5---3---3---7---5--------------|
    A|--5---1---3---5---3--------------|
    E|--3-------1----------------------|
    
    # chorus #A *=tocar 6x #=tocar 3x **=tocar 16x abafando
    E|-/--------X3------------------------------|
    B|---*-------*----#---#--------------**------|
    G|--3----*--7---10---5-------*---*--7--------|
    D|--3---3---7---10---5----7-8-7-8---7--------|
    A|--1---3---5----8---3--------------5--------|
    E|------1-----------------5/6-5/6------------|
    
    # chorus #B X3
    E|--------------------------------------------|
    B|---*---*---*---*---*---*--------------------|
    G|-10---7--10---7--12---7--10-9-9-7-7-5-5-5---|
    D|--------------------------------------------|
    A|--8---5---8---5--10---5---8-7-7-5-5-3-3-3---|
    E|--------------------------------------------|
    
    # chorus #B *=tocar 16x
    E|---------------------------------------------|
    B|---*-----------------------------------------|
    G|-10---77--99-1010--1212-1010--99--77--55-----|
    D|---------------------------------------------|
    A|--8---55--77--8-8--1010--8-8--77--55--33-----|
    E|---------------------------------------------|
    
    Tocar intro2 #A e o verso #B
    
    # pre-verse #A&B *=play 8x
    E|-/------------abafando------------------------|
    B|-------*-------*-----------------*---------------|
    G|---*--3----*--7---5-5--------*--3----*--77--55---|
    D|--5---3---3---7---5-5--5----5---3---3---77--55---|
    A|--5---1---3---5---3-3--20---5---1---3---55--33---|
    E|--3-------1-----------------3-------1------------|
    
    tocar verso #A&B X2 e o chorus #A&B
    
    # ponte #A X8 m=abafar
    E|-----------------------------------------|
    B|----mm---mm---mm---mm---mm---mm---mm-----|
    G|--9-99-9-99-9-99-9-99-9-99-9-99-9-99-9---|
    D|-----------------------------------------|
    A|--7-77-7-77-7-77-7-77-7-77-7-77-7-77-7---|
    E|-----------------------------------------|
    
    # ponte #B X4 *=tocar 8x
    E|-----------------------------|
    B|-----------------------------|
    G|---*--------*----------------|
    D|--7---55---3---55------------|
    A|--7---55---3---55------------|
    E|--5---33---1---33------------|
    
    # ponte #C h=hammer-on p=pull-off
    E|-----------------|
    B|-----------------|
    G|-----9h10p9------|
    D|--10-------------|
    A|-----------------|
    E|-----------------|


    Comente
    user 300 caracteres restantes. Enviar

    Todas as letras de Dead Fish

    Publicidade
    Notícias
    Mais notícias »
    Hot Spot
    Top Músicas do Vagalume
    Top 100 »

    As informações deste site são postadas integralmente pelos usuários. É importante dizer que é possível que os dados estejam desatualizados ou incorretos, sendo assim, o Vagalume exime-se de qualquer responsabilidade sobre as informações publicadas.Caso haja interesse em remover ou alterar alguma informação, entre em contato conosco.


    É permitida somente a visualização no site das letras de músicas encontradas aqui, vedada sua reprodução através de quaisquer outros meios (Lei 9610/98).Todas as letras de músicas são propriedade dos seus respectivos autores e divulgadas somente para fins educacionais.All lyrics are property and copyright of their owners. All lyrics are provided for educational purposes only.