Muito mais que só letras de músicas

  • Vagalume
  • A-Z
  • Estilos
  • Top 100
  • Playlists
  • Rádios
  • Hot Spots
  • Notícias
  • PLAY

    Instrumento:
    Um Dia Comum
    RIFF1
    E|------------------------------------------------------------------------|
    B|-0-0-3-0-0-2-0-0-2-0-0-2h3p0-0-0-3-0-0-2-0-0-2-0-0-3p2--------3p2-------|
    G|--------------------------------------------------------2...------2...--|
                                                       D                                        A
    
    D A (RIFF1)
    Foi-se o tempo
    Em que ter o que dizer
    Serviu pra alguma coisa que encontrei
    Sentido em manter passos
    Que nada de novo oferecem
    Ou esperanças de que
    Tudo isso irá ter fim
    	
    C A 
    Porque “Hoje é mais um dia
    Como outro dia qualquer”
    
    D (RIFF1)
    E meus olhos não acham
    Sentido algum 
    
    F# D A
    quando a luz se apaga
    E já não vejo as placas
    Me diz pra onde eu vou
    Me diz pra onde eu vou
    Quando a voz se cala
    E só me restam mágoas
    Me diz quem é que eu sou
    Me diz quem é que eu sou
    Quando a um mar de nada
    Entrego minhas forças
    
    D (RIFF1)
    E desisto de entender
    
    Umas par de vezes
    E|--------------|--------------------------------------------|
    B|-5-4-3-4-3-5--|--5/7-5-3-2-3-2---------------------2-3-2---|
    G|--------------|----------------4-2-44-4-2-4-4-4-2-------2-|
    D|--------------|--------------------------------------------|
    A|--------------|--------------------------------------------|
    E|--------------|--------------------------------------------|
    num ta muito certo mais da pra engana
    BASE DO SOLO:  A F# E D
    
    D A (RIFF1)
    De que vale olhar tanto o espelho
    Se ninguém vai te procurar?
    De que vale guardar tanto segredo
    Se ninguém se interessa
    
    C  A
    Por tudo o que você pensa
    Ter de melhor nessa na vida?
    
    D (RIFF1)
    É só mais um dia comum
    
    (F# D A)
    Em que o céu desaba
    E estrelas de lata ferem nossas mãos
    É só outra ambição
    A ser cultivada e depois destroçada
    É só outra ilusão
    Me diz pra que então
    Pensar não ser água e tentar inflamar
    Nossos corpos em vão
    Me diz qual a razão de cultivar
    A estrada quando sei que nada
    Nasce de nossas mãos.
    É inocência então
    Crer sobreviver ao dia comum
    
    D (RIFF1)
    Quando na verdade ele é quem
    
    A F# E D (SOLO)
    Manda em nossa vida e nos dá
    O gosto da partida mesmo sem
    Nunca termos saído daqui
    É só um dia então
    Como outro dia qualquer,
    Em que você não é ninguém
    
    D (RIFF1)
    Especial pra ninguém
    


    Encontrou algum erro na letra? Por favor, envie uma correção »

    Comente
    user 300 caracteres restantes. Enviar

    Todas as letras de Dance of Days
    Escute Também

    Publicidade
    Um Dia Comum (cifrada) - Dance of Days - VAGALUME
    PLAY

    Instrumento:
    Um Dia Comum
    RIFF1
    E|------------------------------------------------------------------------|
    B|-0-0-3-0-0-2-0-0-2-0-0-2h3p0-0-0-3-0-0-2-0-0-2-0-0-3p2--------3p2-------|
    G|--------------------------------------------------------2...------2...--|
                                                       D                                        A
    
    D A (RIFF1)
    Foi-se o tempo
    Em que ter o que dizer
    Serviu pra alguma coisa que encontrei
    Sentido em manter passos
    Que nada de novo oferecem
    Ou esperanças de que
    Tudo isso irá ter fim
    	
    C A 
    Porque “Hoje é mais um dia
    Como outro dia qualquer”
    
    D (RIFF1)
    E meus olhos não acham
    Sentido algum 
    
    F# D A
    quando a luz se apaga
    E já não vejo as placas
    Me diz pra onde eu vou
    Me diz pra onde eu vou
    Quando a voz se cala
    E só me restam mágoas
    Me diz quem é que eu sou
    Me diz quem é que eu sou
    Quando a um mar de nada
    Entrego minhas forças
    
    D (RIFF1)
    E desisto de entender
    
    Umas par de vezes
    E|--------------|--------------------------------------------|
    B|-5-4-3-4-3-5--|--5/7-5-3-2-3-2---------------------2-3-2---|
    G|--------------|----------------4-2-44-4-2-4-4-4-2-------2-|
    D|--------------|--------------------------------------------|
    A|--------------|--------------------------------------------|
    E|--------------|--------------------------------------------|
    num ta muito certo mais da pra engana
    BASE DO SOLO:  A F# E D
    
    D A (RIFF1)
    De que vale olhar tanto o espelho
    Se ninguém vai te procurar?
    De que vale guardar tanto segredo
    Se ninguém se interessa
    
    C  A
    Por tudo o que você pensa
    Ter de melhor nessa na vida?
    
    D (RIFF1)
    É só mais um dia comum
    
    (F# D A)
    Em que o céu desaba
    E estrelas de lata ferem nossas mãos
    É só outra ambição
    A ser cultivada e depois destroçada
    É só outra ilusão
    Me diz pra que então
    Pensar não ser água e tentar inflamar
    Nossos corpos em vão
    Me diz qual a razão de cultivar
    A estrada quando sei que nada
    Nasce de nossas mãos.
    É inocência então
    Crer sobreviver ao dia comum
    
    D (RIFF1)
    Quando na verdade ele é quem
    
    A F# E D (SOLO)
    Manda em nossa vida e nos dá
    O gosto da partida mesmo sem
    Nunca termos saído daqui
    É só um dia então
    Como outro dia qualquer,
    Em que você não é ninguém
    
    D (RIFF1)
    Especial pra ninguém
    


    Encontrou algum erro na letra? Por favor, envie uma correção »

    Comente
    user 300 caracteres restantes. Enviar

    Todas as letras de Dance of Days
    Escute Também

    Publicidade
    Um Dia Comum (cifrada) - Dance of Days - VAGALUME
    PLAY

    Instrumento:
    Um Dia Comum
    RIFF1
    E|------------------------------------------------------------------------|
    B|-0-0-3-0-0-2-0-0-2-0-0-2h3p0-0-0-3-0-0-2-0-0-2-0-0-3p2--------3p2-------|
    G|--------------------------------------------------------2...------2...--|
                                                       D                                        A
    
    D A (RIFF1)
    Foi-se o tempo
    Em que ter o que dizer
    Serviu pra alguma coisa que encontrei
    Sentido em manter passos
    Que nada de novo oferecem
    Ou esperanças de que
    Tudo isso irá ter fim
    	
    C A 
    Porque “Hoje é mais um dia
    Como outro dia qualquer”
    
    D (RIFF1)
    E meus olhos não acham
    Sentido algum 
    
    F# D A
    quando a luz se apaga
    E já não vejo as placas
    Me diz pra onde eu vou
    Me diz pra onde eu vou
    Quando a voz se cala
    E só me restam mágoas
    Me diz quem é que eu sou
    Me diz quem é que eu sou
    Quando a um mar de nada
    Entrego minhas forças
    
    D (RIFF1)
    E desisto de entender
    
    Umas par de vezes
    E|--------------|--------------------------------------------|
    B|-5-4-3-4-3-5--|--5/7-5-3-2-3-2---------------------2-3-2---|
    G|--------------|----------------4-2-44-4-2-4-4-4-2-------2-|
    D|--------------|--------------------------------------------|
    A|--------------|--------------------------------------------|
    E|--------------|--------------------------------------------|
    num ta muito certo mais da pra engana
    BASE DO SOLO:  A F# E D
    
    D A (RIFF1)
    De que vale olhar tanto o espelho
    Se ninguém vai te procurar?
    De que vale guardar tanto segredo
    Se ninguém se interessa
    
    C  A
    Por tudo o que você pensa
    Ter de melhor nessa na vida?
    
    D (RIFF1)
    É só mais um dia comum
    
    (F# D A)
    Em que o céu desaba
    E estrelas de lata ferem nossas mãos
    É só outra ambição
    A ser cultivada e depois destroçada
    É só outra ilusão
    Me diz pra que então
    Pensar não ser água e tentar inflamar
    Nossos corpos em vão
    Me diz qual a razão de cultivar
    A estrada quando sei que nada
    Nasce de nossas mãos.
    É inocência então
    Crer sobreviver ao dia comum
    
    D (RIFF1)
    Quando na verdade ele é quem
    
    A F# E D (SOLO)
    Manda em nossa vida e nos dá
    O gosto da partida mesmo sem
    Nunca termos saído daqui
    É só um dia então
    Como outro dia qualquer,
    Em que você não é ninguém
    
    D (RIFF1)
    Especial pra ninguém
    


    Encontrou algum erro na letra? Por favor, envie uma correção »

    Comente
    user 300 caracteres restantes. Enviar

    Todas as letras de Dance of Days
    Escute Também

    Publicidade
    Um Dia Comum (cifrada) - Dance of Days - VAGALUME
    PLAY

    Instrumento:
    Um Dia Comum
    RIFF1
    E|------------------------------------------------------------------------|
    B|-0-0-3-0-0-2-0-0-2-0-0-2h3p0-0-0-3-0-0-2-0-0-2-0-0-3p2--------3p2-------|
    G|--------------------------------------------------------2...------2...--|
                                                       D                                        A
    
    D A (RIFF1)
    Foi-se o tempo
    Em que ter o que dizer
    Serviu pra alguma coisa que encontrei
    Sentido em manter passos
    Que nada de novo oferecem
    Ou esperanças de que
    Tudo isso irá ter fim
    	
    C A 
    Porque “Hoje é mais um dia
    Como outro dia qualquer”
    
    D (RIFF1)
    E meus olhos não acham
    Sentido algum 
    
    F# D A
    quando a luz se apaga
    E já não vejo as placas
    Me diz pra onde eu vou
    Me diz pra onde eu vou
    Quando a voz se cala
    E só me restam mágoas
    Me diz quem é que eu sou
    Me diz quem é que eu sou
    Quando a um mar de nada
    Entrego minhas forças
    
    D (RIFF1)
    E desisto de entender
    
    Umas par de vezes
    E|--------------|--------------------------------------------|
    B|-5-4-3-4-3-5--|--5/7-5-3-2-3-2---------------------2-3-2---|
    G|--------------|----------------4-2-44-4-2-4-4-4-2-------2-|
    D|--------------|--------------------------------------------|
    A|--------------|--------------------------------------------|
    E|--------------|--------------------------------------------|
    num ta muito certo mais da pra engana
    BASE DO SOLO:  A F# E D
    
    D A (RIFF1)
    De que vale olhar tanto o espelho
    Se ninguém vai te procurar?
    De que vale guardar tanto segredo
    Se ninguém se interessa
    
    C  A
    Por tudo o que você pensa
    Ter de melhor nessa na vida?
    
    D (RIFF1)
    É só mais um dia comum
    
    (F# D A)
    Em que o céu desaba
    E estrelas de lata ferem nossas mãos
    É só outra ambição
    A ser cultivada e depois destroçada
    É só outra ilusão
    Me diz pra que então
    Pensar não ser água e tentar inflamar
    Nossos corpos em vão
    Me diz qual a razão de cultivar
    A estrada quando sei que nada
    Nasce de nossas mãos.
    É inocência então
    Crer sobreviver ao dia comum
    
    D (RIFF1)
    Quando na verdade ele é quem
    
    A F# E D (SOLO)
    Manda em nossa vida e nos dá
    O gosto da partida mesmo sem
    Nunca termos saído daqui
    É só um dia então
    Como outro dia qualquer,
    Em que você não é ninguém
    
    D (RIFF1)
    Especial pra ninguém
    


    Encontrou algum erro na letra? Por favor, envie uma correção »

    Comente
    user 300 caracteres restantes. Enviar

    Todas as letras de Dance of Days
    Escute Também

    Publicidade
    Um Dia Comum (cifrada) - Dance of Days - VAGALUME
    PLAY

    Instrumento:
    Um Dia Comum
    RIFF1
    E|------------------------------------------------------------------------|
    B|-0-0-3-0-0-2-0-0-2-0-0-2h3p0-0-0-3-0-0-2-0-0-2-0-0-3p2--------3p2-------|
    G|--------------------------------------------------------2...------2...--|
                                                       D                                        A
    
    D A (RIFF1)
    Foi-se o tempo
    Em que ter o que dizer
    Serviu pra alguma coisa que encontrei
    Sentido em manter passos
    Que nada de novo oferecem
    Ou esperanças de que
    Tudo isso irá ter fim
    	
    C A 
    Porque “Hoje é mais um dia
    Como outro dia qualquer”
    
    D (RIFF1)
    E meus olhos não acham
    Sentido algum 
    
    F# D A
    quando a luz se apaga
    E já não vejo as placas
    Me diz pra onde eu vou
    Me diz pra onde eu vou
    Quando a voz se cala
    E só me restam mágoas
    Me diz quem é que eu sou
    Me diz quem é que eu sou
    Quando a um mar de nada
    Entrego minhas forças
    
    D (RIFF1)
    E desisto de entender
    
    Umas par de vezes
    E|--------------|--------------------------------------------|
    B|-5-4-3-4-3-5--|--5/7-5-3-2-3-2---------------------2-3-2---|
    G|--------------|----------------4-2-44-4-2-4-4-4-2-------2-|
    D|--------------|--------------------------------------------|
    A|--------------|--------------------------------------------|
    E|--------------|--------------------------------------------|
    num ta muito certo mais da pra engana
    BASE DO SOLO:  A F# E D
    
    D A (RIFF1)
    De que vale olhar tanto o espelho
    Se ninguém vai te procurar?
    De que vale guardar tanto segredo
    Se ninguém se interessa
    
    C  A
    Por tudo o que você pensa
    Ter de melhor nessa na vida?
    
    D (RIFF1)
    É só mais um dia comum
    
    (F# D A)
    Em que o céu desaba
    E estrelas de lata ferem nossas mãos
    É só outra ambição
    A ser cultivada e depois destroçada
    É só outra ilusão
    Me diz pra que então
    Pensar não ser água e tentar inflamar
    Nossos corpos em vão
    Me diz qual a razão de cultivar
    A estrada quando sei que nada
    Nasce de nossas mãos.
    É inocência então
    Crer sobreviver ao dia comum
    
    D (RIFF1)
    Quando na verdade ele é quem
    
    A F# E D (SOLO)
    Manda em nossa vida e nos dá
    O gosto da partida mesmo sem
    Nunca termos saído daqui
    É só um dia então
    Como outro dia qualquer,
    Em que você não é ninguém
    
    D (RIFF1)
    Especial pra ninguém
    


    Encontrou algum erro na letra? Por favor, envie uma correção »

    Comente
    user 300 caracteres restantes. Enviar

    Todas as letras de Dance of Days
    Escute Também

    Publicidade
    Um Dia Comum (cifrada) - Dance of Days - VAGALUME
    PLAY

    Instrumento:
    Um Dia Comum
    RIFF1
    E|------------------------------------------------------------------------|
    B|-0-0-3-0-0-2-0-0-2-0-0-2h3p0-0-0-3-0-0-2-0-0-2-0-0-3p2--------3p2-------|
    G|--------------------------------------------------------2...------2...--|
                                                       D                                        A
    
    D A (RIFF1)
    Foi-se o tempo
    Em que ter o que dizer
    Serviu pra alguma coisa que encontrei
    Sentido em manter passos
    Que nada de novo oferecem
    Ou esperanças de que
    Tudo isso irá ter fim
    	
    C A 
    Porque “Hoje é mais um dia
    Como outro dia qualquer”
    
    D (RIFF1)
    E meus olhos não acham
    Sentido algum 
    
    F# D A
    quando a luz se apaga
    E já não vejo as placas
    Me diz pra onde eu vou
    Me diz pra onde eu vou
    Quando a voz se cala
    E só me restam mágoas
    Me diz quem é que eu sou
    Me diz quem é que eu sou
    Quando a um mar de nada
    Entrego minhas forças
    
    D (RIFF1)
    E desisto de entender
    
    Umas par de vezes
    E|--------------|--------------------------------------------|
    B|-5-4-3-4-3-5--|--5/7-5-3-2-3-2---------------------2-3-2---|
    G|--------------|----------------4-2-44-4-2-4-4-4-2-------2-|
    D|--------------|--------------------------------------------|
    A|--------------|--------------------------------------------|
    E|--------------|--------------------------------------------|
    num ta muito certo mais da pra engana
    BASE DO SOLO:  A F# E D
    
    D A (RIFF1)
    De que vale olhar tanto o espelho
    Se ninguém vai te procurar?
    De que vale guardar tanto segredo
    Se ninguém se interessa
    
    C  A
    Por tudo o que você pensa
    Ter de melhor nessa na vida?
    
    D (RIFF1)
    É só mais um dia comum
    
    (F# D A)
    Em que o céu desaba
    E estrelas de lata ferem nossas mãos
    É só outra ambição
    A ser cultivada e depois destroçada
    É só outra ilusão
    Me diz pra que então
    Pensar não ser água e tentar inflamar
    Nossos corpos em vão
    Me diz qual a razão de cultivar
    A estrada quando sei que nada
    Nasce de nossas mãos.
    É inocência então
    Crer sobreviver ao dia comum
    
    D (RIFF1)
    Quando na verdade ele é quem
    
    A F# E D (SOLO)
    Manda em nossa vida e nos dá
    O gosto da partida mesmo sem
    Nunca termos saído daqui
    É só um dia então
    Como outro dia qualquer,
    Em que você não é ninguém
    
    D (RIFF1)
    Especial pra ninguém
    


    Encontrou algum erro na letra? Por favor, envie uma correção »

    Comente
    user 300 caracteres restantes. Enviar

    Todas as letras de Dance of Days
    Escute Também

    Publicidade
    Um Dia Comum (cifrada) - Dance of Days - VAGALUME
    PLAY

    Instrumento:
    Um Dia Comum
    RIFF1
    E|------------------------------------------------------------------------|
    B|-0-0-3-0-0-2-0-0-2-0-0-2h3p0-0-0-3-0-0-2-0-0-2-0-0-3p2--------3p2-------|
    G|--------------------------------------------------------2...------2...--|
                                                       D                                        A
    
    D A (RIFF1)
    Foi-se o tempo
    Em que ter o que dizer
    Serviu pra alguma coisa que encontrei
    Sentido em manter passos
    Que nada de novo oferecem
    Ou esperanças de que
    Tudo isso irá ter fim
    	
    C A 
    Porque “Hoje é mais um dia
    Como outro dia qualquer”
    
    D (RIFF1)
    E meus olhos não acham
    Sentido algum 
    
    F# D A
    quando a luz se apaga
    E já não vejo as placas
    Me diz pra onde eu vou
    Me diz pra onde eu vou
    Quando a voz se cala
    E só me restam mágoas
    Me diz quem é que eu sou
    Me diz quem é que eu sou
    Quando a um mar de nada
    Entrego minhas forças
    
    D (RIFF1)
    E desisto de entender
    
    Umas par de vezes
    E|--------------|--------------------------------------------|
    B|-5-4-3-4-3-5--|--5/7-5-3-2-3-2---------------------2-3-2---|
    G|--------------|----------------4-2-44-4-2-4-4-4-2-------2-|
    D|--------------|--------------------------------------------|
    A|--------------|--------------------------------------------|
    E|--------------|--------------------------------------------|
    num ta muito certo mais da pra engana
    BASE DO SOLO:  A F# E D
    
    D A (RIFF1)
    De que vale olhar tanto o espelho
    Se ninguém vai te procurar?
    De que vale guardar tanto segredo
    Se ninguém se interessa
    
    C  A
    Por tudo o que você pensa
    Ter de melhor nessa na vida?
    
    D (RIFF1)
    É só mais um dia comum
    
    (F# D A)
    Em que o céu desaba
    E estrelas de lata ferem nossas mãos
    É só outra ambição
    A ser cultivada e depois destroçada
    É só outra ilusão
    Me diz pra que então
    Pensar não ser água e tentar inflamar
    Nossos corpos em vão
    Me diz qual a razão de cultivar
    A estrada quando sei que nada
    Nasce de nossas mãos.
    É inocência então
    Crer sobreviver ao dia comum
    
    D (RIFF1)
    Quando na verdade ele é quem
    
    A F# E D (SOLO)
    Manda em nossa vida e nos dá
    O gosto da partida mesmo sem
    Nunca termos saído daqui
    É só um dia então
    Como outro dia qualquer,
    Em que você não é ninguém
    
    D (RIFF1)
    Especial pra ninguém
    


    Encontrou algum erro na letra? Por favor, envie uma correção »

    Comente
    user 300 caracteres restantes. Enviar

    Todas as letras de Dance of Days
    Escute Também

    Publicidade
    Um Dia Comum (cifrada) - Dance of Days - VAGALUME
    PLAY

    Instrumento:
    Um Dia Comum
    RIFF1
    E|------------------------------------------------------------------------|
    B|-0-0-3-0-0-2-0-0-2-0-0-2h3p0-0-0-3-0-0-2-0-0-2-0-0-3p2--------3p2-------|
    G|--------------------------------------------------------2...------2...--|
                                                       D                                        A
    
    D A (RIFF1)
    Foi-se o tempo
    Em que ter o que dizer
    Serviu pra alguma coisa que encontrei
    Sentido em manter passos
    Que nada de novo oferecem
    Ou esperanças de que
    Tudo isso irá ter fim
    	
    C A 
    Porque “Hoje é mais um dia
    Como outro dia qualquer”
    
    D (RIFF1)
    E meus olhos não acham
    Sentido algum 
    
    F# D A
    quando a luz se apaga
    E já não vejo as placas
    Me diz pra onde eu vou
    Me diz pra onde eu vou
    Quando a voz se cala
    E só me restam mágoas
    Me diz quem é que eu sou
    Me diz quem é que eu sou
    Quando a um mar de nada
    Entrego minhas forças
    
    D (RIFF1)
    E desisto de entender
    
    Umas par de vezes
    E|--------------|--------------------------------------------|
    B|-5-4-3-4-3-5--|--5/7-5-3-2-3-2---------------------2-3-2---|
    G|--------------|----------------4-2-44-4-2-4-4-4-2-------2-|
    D|--------------|--------------------------------------------|
    A|--------------|--------------------------------------------|
    E|--------------|--------------------------------------------|
    num ta muito certo mais da pra engana
    BASE DO SOLO:  A F# E D
    
    D A (RIFF1)
    De que vale olhar tanto o espelho
    Se ninguém vai te procurar?
    De que vale guardar tanto segredo
    Se ninguém se interessa
    
    C  A
    Por tudo o que você pensa
    Ter de melhor nessa na vida?
    
    D (RIFF1)
    É só mais um dia comum
    
    (F# D A)
    Em que o céu desaba
    E estrelas de lata ferem nossas mãos
    É só outra ambição
    A ser cultivada e depois destroçada
    É só outra ilusão
    Me diz pra que então
    Pensar não ser água e tentar inflamar
    Nossos corpos em vão
    Me diz qual a razão de cultivar
    A estrada quando sei que nada
    Nasce de nossas mãos.
    É inocência então
    Crer sobreviver ao dia comum
    
    D (RIFF1)
    Quando na verdade ele é quem
    
    A F# E D (SOLO)
    Manda em nossa vida e nos dá
    O gosto da partida mesmo sem
    Nunca termos saído daqui
    É só um dia então
    Como outro dia qualquer,
    Em que você não é ninguém
    
    D (RIFF1)
    Especial pra ninguém
    


    Encontrou algum erro na letra? Por favor, envie uma correção »

    Comente
    user 300 caracteres restantes. Enviar

    Todas as letras de Dance of Days
    Escute Também

    Publicidade
    Um Dia Comum (cifrada) - Dance of Days - VAGALUME
    PLAY

    Instrumento:
    Um Dia Comum
    RIFF1
    E|------------------------------------------------------------------------|
    B|-0-0-3-0-0-2-0-0-2-0-0-2h3p0-0-0-3-0-0-2-0-0-2-0-0-3p2--------3p2-------|
    G|--------------------------------------------------------2...------2...--|
                                                       D                                        A
    
    D A (RIFF1)
    Foi-se o tempo
    Em que ter o que dizer
    Serviu pra alguma coisa que encontrei
    Sentido em manter passos
    Que nada de novo oferecem
    Ou esperanças de que
    Tudo isso irá ter fim
    	
    C A 
    Porque “Hoje é mais um dia
    Como outro dia qualquer”
    
    D (RIFF1)
    E meus olhos não acham
    Sentido algum 
    
    F# D A
    quando a luz se apaga
    E já não vejo as placas
    Me diz pra onde eu vou
    Me diz pra onde eu vou
    Quando a voz se cala
    E só me restam mágoas
    Me diz quem é que eu sou
    Me diz quem é que eu sou
    Quando a um mar de nada
    Entrego minhas forças
    
    D (RIFF1)
    E desisto de entender
    
    Umas par de vezes
    E|--------------|--------------------------------------------|
    B|-5-4-3-4-3-5--|--5/7-5-3-2-3-2---------------------2-3-2---|
    G|--------------|----------------4-2-44-4-2-4-4-4-2-------2-|
    D|--------------|--------------------------------------------|
    A|--------------|--------------------------------------------|
    E|--------------|--------------------------------------------|
    num ta muito certo mais da pra engana
    BASE DO SOLO:  A F# E D
    
    D A (RIFF1)
    De que vale olhar tanto o espelho
    Se ninguém vai te procurar?
    De que vale guardar tanto segredo
    Se ninguém se interessa
    
    C  A
    Por tudo o que você pensa
    Ter de melhor nessa na vida?
    
    D (RIFF1)
    É só mais um dia comum
    
    (F# D A)
    Em que o céu desaba
    E estrelas de lata ferem nossas mãos
    É só outra ambição
    A ser cultivada e depois destroçada
    É só outra ilusão
    Me diz pra que então
    Pensar não ser água e tentar inflamar
    Nossos corpos em vão
    Me diz qual a razão de cultivar
    A estrada quando sei que nada
    Nasce de nossas mãos.
    É inocência então
    Crer sobreviver ao dia comum
    
    D (RIFF1)
    Quando na verdade ele é quem
    
    A F# E D (SOLO)
    Manda em nossa vida e nos dá
    O gosto da partida mesmo sem
    Nunca termos saído daqui
    É só um dia então
    Como outro dia qualquer,
    Em que você não é ninguém
    
    D (RIFF1)
    Especial pra ninguém
    


    Encontrou algum erro na letra? Por favor, envie uma correção »

    Comente
    user 300 caracteres restantes. Enviar

    Todas as letras de Dance of Days
    Escute Também

    Publicidade
    Um Dia Comum (cifrada) - Dance of Days - VAGALUME
    PLAY

    Instrumento:
    Um Dia Comum
    RIFF1
    E|------------------------------------------------------------------------|
    B|-0-0-3-0-0-2-0-0-2-0-0-2h3p0-0-0-3-0-0-2-0-0-2-0-0-3p2--------3p2-------|
    G|--------------------------------------------------------2...------2...--|
                                                       D                                        A
    
    D A (RIFF1)
    Foi-se o tempo
    Em que ter o que dizer
    Serviu pra alguma coisa que encontrei
    Sentido em manter passos
    Que nada de novo oferecem
    Ou esperanças de que
    Tudo isso irá ter fim
    	
    C A 
    Porque “Hoje é mais um dia
    Como outro dia qualquer”
    
    D (RIFF1)
    E meus olhos não acham
    Sentido algum 
    
    F# D A
    quando a luz se apaga
    E já não vejo as placas
    Me diz pra onde eu vou
    Me diz pra onde eu vou
    Quando a voz se cala
    E só me restam mágoas
    Me diz quem é que eu sou
    Me diz quem é que eu sou
    Quando a um mar de nada
    Entrego minhas forças
    
    D (RIFF1)
    E desisto de entender
    
    Umas par de vezes
    E|--------------|--------------------------------------------|
    B|-5-4-3-4-3-5--|--5/7-5-3-2-3-2---------------------2-3-2---|
    G|--------------|----------------4-2-44-4-2-4-4-4-2-------2-|
    D|--------------|--------------------------------------------|
    A|--------------|--------------------------------------------|
    E|--------------|--------------------------------------------|
    num ta muito certo mais da pra engana
    BASE DO SOLO:  A F# E D
    
    D A (RIFF1)
    De que vale olhar tanto o espelho
    Se ninguém vai te procurar?
    De que vale guardar tanto segredo
    Se ninguém se interessa
    
    C  A
    Por tudo o que você pensa
    Ter de melhor nessa na vida?
    
    D (RIFF1)
    É só mais um dia comum
    
    (F# D A)
    Em que o céu desaba
    E estrelas de lata ferem nossas mãos
    É só outra ambição
    A ser cultivada e depois destroçada
    É só outra ilusão
    Me diz pra que então
    Pensar não ser água e tentar inflamar
    Nossos corpos em vão
    Me diz qual a razão de cultivar
    A estrada quando sei que nada
    Nasce de nossas mãos.
    É inocência então
    Crer sobreviver ao dia comum
    
    D (RIFF1)
    Quando na verdade ele é quem
    
    A F# E D (SOLO)
    Manda em nossa vida e nos dá
    O gosto da partida mesmo sem
    Nunca termos saído daqui
    É só um dia então
    Como outro dia qualquer,
    Em que você não é ninguém
    
    D (RIFF1)
    Especial pra ninguém
    


    Encontrou algum erro na letra? Por favor, envie uma correção »

    Comente
    user 300 caracteres restantes. Enviar

    Todas as letras de Dance of Days
    Escute Também

    Publicidade
    Um Dia Comum (cifrada) - Dance of Days - VAGALUME
    PLAY

    Instrumento:
    Um Dia Comum
    RIFF1
    E|------------------------------------------------------------------------|
    B|-0-0-3-0-0-2-0-0-2-0-0-2h3p0-0-0-3-0-0-2-0-0-2-0-0-3p2--------3p2-------|
    G|--------------------------------------------------------2...------2...--|
                                                       D                                        A
    
    D A (RIFF1)
    Foi-se o tempo
    Em que ter o que dizer
    Serviu pra alguma coisa que encontrei
    Sentido em manter passos
    Que nada de novo oferecem
    Ou esperanças de que
    Tudo isso irá ter fim
    	
    C A 
    Porque “Hoje é mais um dia
    Como outro dia qualquer”
    
    D (RIFF1)
    E meus olhos não acham
    Sentido algum 
    
    F# D A
    quando a luz se apaga
    E já não vejo as placas
    Me diz pra onde eu vou
    Me diz pra onde eu vou
    Quando a voz se cala
    E só me restam mágoas
    Me diz quem é que eu sou
    Me diz quem é que eu sou
    Quando a um mar de nada
    Entrego minhas forças
    
    D (RIFF1)
    E desisto de entender
    
    Umas par de vezes
    E|--------------|--------------------------------------------|
    B|-5-4-3-4-3-5--|--5/7-5-3-2-3-2---------------------2-3-2---|
    G|--------------|----------------4-2-44-4-2-4-4-4-2-------2-|
    D|--------------|--------------------------------------------|
    A|--------------|--------------------------------------------|
    E|--------------|--------------------------------------------|
    num ta muito certo mais da pra engana
    BASE DO SOLO:  A F# E D
    
    D A (RIFF1)
    De que vale olhar tanto o espelho
    Se ninguém vai te procurar?
    De que vale guardar tanto segredo
    Se ninguém se interessa
    
    C  A
    Por tudo o que você pensa
    Ter de melhor nessa na vida?
    
    D (RIFF1)
    É só mais um dia comum
    
    (F# D A)
    Em que o céu desaba
    E estrelas de lata ferem nossas mãos
    É só outra ambição
    A ser cultivada e depois destroçada
    É só outra ilusão
    Me diz pra que então
    Pensar não ser água e tentar inflamar
    Nossos corpos em vão
    Me diz qual a razão de cultivar
    A estrada quando sei que nada
    Nasce de nossas mãos.
    É inocência então
    Crer sobreviver ao dia comum
    
    D (RIFF1)
    Quando na verdade ele é quem
    
    A F# E D (SOLO)
    Manda em nossa vida e nos dá
    O gosto da partida mesmo sem
    Nunca termos saído daqui
    É só um dia então
    Como outro dia qualquer,
    Em que você não é ninguém
    
    D (RIFF1)
    Especial pra ninguém
    


    Encontrou algum erro na letra? Por favor, envie uma correção »

    Comente
    user 300 caracteres restantes. Enviar

    Todas as letras de Dance of Days
    Escute Também

    Publicidade
    Um Dia Comum (cifrada) - Dance of Days - VAGALUME
    PLAY

    Instrumento:
    Um Dia Comum
    RIFF1
    E|------------------------------------------------------------------------|
    B|-0-0-3-0-0-2-0-0-2-0-0-2h3p0-0-0-3-0-0-2-0-0-2-0-0-3p2--------3p2-------|
    G|--------------------------------------------------------2...------2...--|
                                                       D                                        A
    
    D A (RIFF1)
    Foi-se o tempo
    Em que ter o que dizer
    Serviu pra alguma coisa que encontrei
    Sentido em manter passos
    Que nada de novo oferecem
    Ou esperanças de que
    Tudo isso irá ter fim
    	
    C A 
    Porque “Hoje é mais um dia
    Como outro dia qualquer”
    
    D (RIFF1)
    E meus olhos não acham
    Sentido algum 
    
    F# D A
    quando a luz se apaga
    E já não vejo as placas
    Me diz pra onde eu vou
    Me diz pra onde eu vou
    Quando a voz se cala
    E só me restam mágoas
    Me diz quem é que eu sou
    Me diz quem é que eu sou
    Quando a um mar de nada
    Entrego minhas forças
    
    D (RIFF1)
    E desisto de entender
    
    Umas par de vezes
    E|--------------|--------------------------------------------|
    B|-5-4-3-4-3-5--|--5/7-5-3-2-3-2---------------------2-3-2---|
    G|--------------|----------------4-2-44-4-2-4-4-4-2-------2-|
    D|--------------|--------------------------------------------|
    A|--------------|--------------------------------------------|
    E|--------------|--------------------------------------------|
    num ta muito certo mais da pra engana
    BASE DO SOLO:  A F# E D
    
    D A (RIFF1)
    De que vale olhar tanto o espelho
    Se ninguém vai te procurar?
    De que vale guardar tanto segredo
    Se ninguém se interessa
    
    C  A
    Por tudo o que você pensa
    Ter de melhor nessa na vida?
    
    D (RIFF1)
    É só mais um dia comum
    
    (F# D A)
    Em que o céu desaba
    E estrelas de lata ferem nossas mãos
    É só outra ambição
    A ser cultivada e depois destroçada
    É só outra ilusão
    Me diz pra que então
    Pensar não ser água e tentar inflamar
    Nossos corpos em vão
    Me diz qual a razão de cultivar
    A estrada quando sei que nada
    Nasce de nossas mãos.
    É inocência então
    Crer sobreviver ao dia comum
    
    D (RIFF1)
    Quando na verdade ele é quem
    
    A F# E D (SOLO)
    Manda em nossa vida e nos dá
    O gosto da partida mesmo sem
    Nunca termos saído daqui
    É só um dia então
    Como outro dia qualquer,
    Em que você não é ninguém
    
    D (RIFF1)
    Especial pra ninguém
    


    Encontrou algum erro na letra? Por favor, envie uma correção »

    Comente
    user 300 caracteres restantes. Enviar

    Todas as letras de Dance of Days
    Escute Também

    Publicidade
    Um Dia Comum (cifrada) - Dance of Days - VAGALUME
    PLAY

    Instrumento:
    Um Dia Comum
    RIFF1
    E|------------------------------------------------------------------------|
    B|-0-0-3-0-0-2-0-0-2-0-0-2h3p0-0-0-3-0-0-2-0-0-2-0-0-3p2--------3p2-------|
    G|--------------------------------------------------------2...------2...--|
                                                       D                                        A
    
    D A (RIFF1)
    Foi-se o tempo
    Em que ter o que dizer
    Serviu pra alguma coisa que encontrei
    Sentido em manter passos
    Que nada de novo oferecem
    Ou esperanças de que
    Tudo isso irá ter fim
    	
    C A 
    Porque “Hoje é mais um dia
    Como outro dia qualquer”
    
    D (RIFF1)
    E meus olhos não acham
    Sentido algum 
    
    F# D A
    quando a luz se apaga
    E já não vejo as placas
    Me diz pra onde eu vou
    Me diz pra onde eu vou
    Quando a voz se cala
    E só me restam mágoas
    Me diz quem é que eu sou
    Me diz quem é que eu sou
    Quando a um mar de nada
    Entrego minhas forças
    
    D (RIFF1)
    E desisto de entender
    
    Umas par de vezes
    E|--------------|--------------------------------------------|
    B|-5-4-3-4-3-5--|--5/7-5-3-2-3-2---------------------2-3-2---|
    G|--------------|----------------4-2-44-4-2-4-4-4-2-------2-|
    D|--------------|--------------------------------------------|
    A|--------------|--------------------------------------------|
    E|--------------|--------------------------------------------|
    num ta muito certo mais da pra engana
    BASE DO SOLO:  A F# E D
    
    D A (RIFF1)
    De que vale olhar tanto o espelho
    Se ninguém vai te procurar?
    De que vale guardar tanto segredo
    Se ninguém se interessa
    
    C  A
    Por tudo o que você pensa
    Ter de melhor nessa na vida?
    
    D (RIFF1)
    É só mais um dia comum
    
    (F# D A)
    Em que o céu desaba
    E estrelas de lata ferem nossas mãos
    É só outra ambição
    A ser cultivada e depois destroçada
    É só outra ilusão
    Me diz pra que então
    Pensar não ser água e tentar inflamar
    Nossos corpos em vão
    Me diz qual a razão de cultivar
    A estrada quando sei que nada
    Nasce de nossas mãos.
    É inocência então
    Crer sobreviver ao dia comum
    
    D (RIFF1)
    Quando na verdade ele é quem
    
    A F# E D (SOLO)
    Manda em nossa vida e nos dá
    O gosto da partida mesmo sem
    Nunca termos saído daqui
    É só um dia então
    Como outro dia qualquer,
    Em que você não é ninguém
    
    D (RIFF1)
    Especial pra ninguém
    


    Encontrou algum erro na letra? Por favor, envie uma correção »

    Comente
    user 300 caracteres restantes. Enviar

    Todas as letras de Dance of Days
    Escute Também

    Publicidade
    Um Dia Comum (cifrada) - Dance of Days - VAGALUME
    PLAY

    Instrumento:
    Um Dia Comum
    RIFF1
    E|------------------------------------------------------------------------|
    B|-0-0-3-0-0-2-0-0-2-0-0-2h3p0-0-0-3-0-0-2-0-0-2-0-0-3p2--------3p2-------|
    G|--------------------------------------------------------2...------2...--|
                                                       D                                        A
    
    D A (RIFF1)
    Foi-se o tempo
    Em que ter o que dizer
    Serviu pra alguma coisa que encontrei
    Sentido em manter passos
    Que nada de novo oferecem
    Ou esperanças de que
    Tudo isso irá ter fim
    	
    C A 
    Porque “Hoje é mais um dia
    Como outro dia qualquer”
    
    D (RIFF1)
    E meus olhos não acham
    Sentido algum 
    
    F# D A
    quando a luz se apaga
    E já não vejo as placas
    Me diz pra onde eu vou
    Me diz pra onde eu vou
    Quando a voz se cala
    E só me restam mágoas
    Me diz quem é que eu sou
    Me diz quem é que eu sou
    Quando a um mar de nada
    Entrego minhas forças
    
    D (RIFF1)
    E desisto de entender
    
    Umas par de vezes
    E|--------------|--------------------------------------------|
    B|-5-4-3-4-3-5--|--5/7-5-3-2-3-2---------------------2-3-2---|
    G|--------------|----------------4-2-44-4-2-4-4-4-2-------2-|
    D|--------------|--------------------------------------------|
    A|--------------|--------------------------------------------|
    E|--------------|--------------------------------------------|
    num ta muito certo mais da pra engana
    BASE DO SOLO:  A F# E D
    
    D A (RIFF1)
    De que vale olhar tanto o espelho
    Se ninguém vai te procurar?
    De que vale guardar tanto segredo
    Se ninguém se interessa
    
    C  A
    Por tudo o que você pensa
    Ter de melhor nessa na vida?
    
    D (RIFF1)
    É só mais um dia comum
    
    (F# D A)
    Em que o céu desaba
    E estrelas de lata ferem nossas mãos
    É só outra ambição
    A ser cultivada e depois destroçada
    É só outra ilusão
    Me diz pra que então
    Pensar não ser água e tentar inflamar
    Nossos corpos em vão
    Me diz qual a razão de cultivar
    A estrada quando sei que nada
    Nasce de nossas mãos.
    É inocência então
    Crer sobreviver ao dia comum
    
    D (RIFF1)
    Quando na verdade ele é quem
    
    A F# E D (SOLO)
    Manda em nossa vida e nos dá
    O gosto da partida mesmo sem
    Nunca termos saído daqui
    É só um dia então
    Como outro dia qualquer,
    Em que você não é ninguém
    
    D (RIFF1)
    Especial pra ninguém
    


    Encontrou algum erro na letra? Por favor, envie uma correção »

    Comente
    user 300 caracteres restantes. Enviar

    Todas as letras de Dance of Days
    Escute Também

    Publicidade
    Um Dia Comum (cifrada) - Dance of Days - VAGALUME
    PLAY

    Instrumento:
    Um Dia Comum
    RIFF1
    E|------------------------------------------------------------------------|
    B|-0-0-3-0-0-2-0-0-2-0-0-2h3p0-0-0-3-0-0-2-0-0-2-0-0-3p2--------3p2-------|
    G|--------------------------------------------------------2...------2...--|
                                                       D                                        A
    
    D A (RIFF1)
    Foi-se o tempo
    Em que ter o que dizer
    Serviu pra alguma coisa que encontrei
    Sentido em manter passos
    Que nada de novo oferecem
    Ou esperanças de que
    Tudo isso irá ter fim
    	
    C A 
    Porque “Hoje é mais um dia
    Como outro dia qualquer”
    
    D (RIFF1)
    E meus olhos não acham
    Sentido algum 
    
    F# D A
    quando a luz se apaga
    E já não vejo as placas
    Me diz pra onde eu vou
    Me diz pra onde eu vou
    Quando a voz se cala
    E só me restam mágoas
    Me diz quem é que eu sou
    Me diz quem é que eu sou
    Quando a um mar de nada
    Entrego minhas forças
    
    D (RIFF1)
    E desisto de entender
    
    Umas par de vezes
    E|--------------|--------------------------------------------|
    B|-5-4-3-4-3-5--|--5/7-5-3-2-3-2---------------------2-3-2---|
    G|--------------|----------------4-2-44-4-2-4-4-4-2-------2-|
    D|--------------|--------------------------------------------|
    A|--------------|--------------------------------------------|
    E|--------------|--------------------------------------------|
    num ta muito certo mais da pra engana
    BASE DO SOLO:  A F# E D
    
    D A (RIFF1)
    De que vale olhar tanto o espelho
    Se ninguém vai te procurar?
    De que vale guardar tanto segredo
    Se ninguém se interessa
    
    C  A
    Por tudo o que você pensa
    Ter de melhor nessa na vida?
    
    D (RIFF1)
    É só mais um dia comum
    
    (F# D A)
    Em que o céu desaba
    E estrelas de lata ferem nossas mãos
    É só outra ambição
    A ser cultivada e depois destroçada
    É só outra ilusão
    Me diz pra que então
    Pensar não ser água e tentar inflamar
    Nossos corpos em vão
    Me diz qual a razão de cultivar
    A estrada quando sei que nada
    Nasce de nossas mãos.
    É inocência então
    Crer sobreviver ao dia comum
    
    D (RIFF1)
    Quando na verdade ele é quem
    
    A F# E D (SOLO)
    Manda em nossa vida e nos dá
    O gosto da partida mesmo sem
    Nunca termos saído daqui
    É só um dia então
    Como outro dia qualquer,
    Em que você não é ninguém
    
    D (RIFF1)
    Especial pra ninguém
    


    Encontrou algum erro na letra? Por favor, envie uma correção »

    Comente
    user 300 caracteres restantes. Enviar

    Todas as letras de Dance of Days
    Escute Também

    Publicidade
    Um Dia Comum (cifrada) - Dance of Days - VAGALUME
    PLAY

    Instrumento:
    Um Dia Comum
    RIFF1
    E|------------------------------------------------------------------------|
    B|-0-0-3-0-0-2-0-0-2-0-0-2h3p0-0-0-3-0-0-2-0-0-2-0-0-3p2--------3p2-------|
    G|--------------------------------------------------------2...------2...--|
                                                       D                                        A
    
    D A (RIFF1)
    Foi-se o tempo
    Em que ter o que dizer
    Serviu pra alguma coisa que encontrei
    Sentido em manter passos
    Que nada de novo oferecem
    Ou esperanças de que
    Tudo isso irá ter fim
    	
    C A 
    Porque “Hoje é mais um dia
    Como outro dia qualquer”
    
    D (RIFF1)
    E meus olhos não acham
    Sentido algum 
    
    F# D A
    quando a luz se apaga
    E já não vejo as placas
    Me diz pra onde eu vou
    Me diz pra onde eu vou
    Quando a voz se cala
    E só me restam mágoas
    Me diz quem é que eu sou
    Me diz quem é que eu sou
    Quando a um mar de nada
    Entrego minhas forças
    
    D (RIFF1)
    E desisto de entender
    
    Umas par de vezes
    E|--------------|--------------------------------------------|
    B|-5-4-3-4-3-5--|--5/7-5-3-2-3-2---------------------2-3-2---|
    G|--------------|----------------4-2-44-4-2-4-4-4-2-------2-|
    D|--------------|--------------------------------------------|
    A|--------------|--------------------------------------------|
    E|--------------|--------------------------------------------|
    num ta muito certo mais da pra engana
    BASE DO SOLO:  A F# E D
    
    D A (RIFF1)
    De que vale olhar tanto o espelho
    Se ninguém vai te procurar?
    De que vale guardar tanto segredo
    Se ninguém se interessa
    
    C  A
    Por tudo o que você pensa
    Ter de melhor nessa na vida?
    
    D (RIFF1)
    É só mais um dia comum
    
    (F# D A)
    Em que o céu desaba
    E estrelas de lata ferem nossas mãos
    É só outra ambição
    A ser cultivada e depois destroçada
    É só outra ilusão
    Me diz pra que então
    Pensar não ser água e tentar inflamar
    Nossos corpos em vão
    Me diz qual a razão de cultivar
    A estrada quando sei que nada
    Nasce de nossas mãos.
    É inocência então
    Crer sobreviver ao dia comum
    
    D (RIFF1)
    Quando na verdade ele é quem
    
    A F# E D (SOLO)
    Manda em nossa vida e nos dá
    O gosto da partida mesmo sem
    Nunca termos saído daqui
    É só um dia então
    Como outro dia qualquer,
    Em que você não é ninguém
    
    D (RIFF1)
    Especial pra ninguém
    


    Encontrou algum erro na letra? Por favor, envie uma correção »

    Comente
    user 300 caracteres restantes. Enviar

    Todas as letras de Dance of Days
    Escute Também

    Publicidade
    Um Dia Comum (cifrada) - Dance of Days - VAGALUME
    PLAY

    Instrumento:
    Um Dia Comum
    RIFF1
    E|------------------------------------------------------------------------|
    B|-0-0-3-0-0-2-0-0-2-0-0-2h3p0-0-0-3-0-0-2-0-0-2-0-0-3p2--------3p2-------|
    G|--------------------------------------------------------2...------2...--|
                                                       D                                        A
    
    D A (RIFF1)
    Foi-se o tempo
    Em que ter o que dizer
    Serviu pra alguma coisa que encontrei
    Sentido em manter passos
    Que nada de novo oferecem
    Ou esperanças de que
    Tudo isso irá ter fim
    	
    C A 
    Porque “Hoje é mais um dia
    Como outro dia qualquer”
    
    D (RIFF1)
    E meus olhos não acham
    Sentido algum 
    
    F# D A
    quando a luz se apaga
    E já não vejo as placas
    Me diz pra onde eu vou
    Me diz pra onde eu vou
    Quando a voz se cala
    E só me restam mágoas
    Me diz quem é que eu sou
    Me diz quem é que eu sou
    Quando a um mar de nada
    Entrego minhas forças
    
    D (RIFF1)
    E desisto de entender
    
    Umas par de vezes
    E|--------------|--------------------------------------------|
    B|-5-4-3-4-3-5--|--5/7-5-3-2-3-2---------------------2-3-2---|
    G|--------------|----------------4-2-44-4-2-4-4-4-2-------2-|
    D|--------------|--------------------------------------------|
    A|--------------|--------------------------------------------|
    E|--------------|--------------------------------------------|
    num ta muito certo mais da pra engana
    BASE DO SOLO:  A F# E D
    
    D A (RIFF1)
    De que vale olhar tanto o espelho
    Se ninguém vai te procurar?
    De que vale guardar tanto segredo
    Se ninguém se interessa
    
    C  A
    Por tudo o que você pensa
    Ter de melhor nessa na vida?
    
    D (RIFF1)
    É só mais um dia comum
    
    (F# D A)
    Em que o céu desaba
    E estrelas de lata ferem nossas mãos
    É só outra ambição
    A ser cultivada e depois destroçada
    É só outra ilusão
    Me diz pra que então
    Pensar não ser água e tentar inflamar
    Nossos corpos em vão
    Me diz qual a razão de cultivar
    A estrada quando sei que nada
    Nasce de nossas mãos.
    É inocência então
    Crer sobreviver ao dia comum
    
    D (RIFF1)
    Quando na verdade ele é quem
    
    A F# E D (SOLO)
    Manda em nossa vida e nos dá
    O gosto da partida mesmo sem
    Nunca termos saído daqui
    É só um dia então
    Como outro dia qualquer,
    Em que você não é ninguém
    
    D (RIFF1)
    Especial pra ninguém
    


    Encontrou algum erro na letra? Por favor, envie uma correção »

    Comente
    user 300 caracteres restantes. Enviar

    Todas as letras de Dance of Days
    Escute Também

    Publicidade
    Um Dia Comum (cifrada) - Dance of Days - VAGALUME
    PLAY

    Instrumento:
    Um Dia Comum
    RIFF1
    E|------------------------------------------------------------------------|
    B|-0-0-3-0-0-2-0-0-2-0-0-2h3p0-0-0-3-0-0-2-0-0-2-0-0-3p2--------3p2-------|
    G|--------------------------------------------------------2...------2...--|
                                                       D                                        A
    
    D A (RIFF1)
    Foi-se o tempo
    Em que ter o que dizer
    Serviu pra alguma coisa que encontrei
    Sentido em manter passos
    Que nada de novo oferecem
    Ou esperanças de que
    Tudo isso irá ter fim
    	
    C A 
    Porque “Hoje é mais um dia
    Como outro dia qualquer”
    
    D (RIFF1)
    E meus olhos não acham
    Sentido algum 
    
    F# D A
    quando a luz se apaga
    E já não vejo as placas
    Me diz pra onde eu vou
    Me diz pra onde eu vou
    Quando a voz se cala
    E só me restam mágoas
    Me diz quem é que eu sou
    Me diz quem é que eu sou
    Quando a um mar de nada
    Entrego minhas forças
    
    D (RIFF1)
    E desisto de entender
    
    Umas par de vezes
    E|--------------|--------------------------------------------|
    B|-5-4-3-4-3-5--|--5/7-5-3-2-3-2---------------------2-3-2---|
    G|--------------|----------------4-2-44-4-2-4-4-4-2-------2-|
    D|--------------|--------------------------------------------|
    A|--------------|--------------------------------------------|
    E|--------------|--------------------------------------------|
    num ta muito certo mais da pra engana
    BASE DO SOLO:  A F# E D
    
    D A (RIFF1)
    De que vale olhar tanto o espelho
    Se ninguém vai te procurar?
    De que vale guardar tanto segredo
    Se ninguém se interessa
    
    C  A
    Por tudo o que você pensa
    Ter de melhor nessa na vida?
    
    D (RIFF1)
    É só mais um dia comum
    
    (F# D A)
    Em que o céu desaba
    E estrelas de lata ferem nossas mãos
    É só outra ambição
    A ser cultivada e depois destroçada
    É só outra ilusão
    Me diz pra que então
    Pensar não ser água e tentar inflamar
    Nossos corpos em vão
    Me diz qual a razão de cultivar
    A estrada quando sei que nada
    Nasce de nossas mãos.
    É inocência então
    Crer sobreviver ao dia comum
    
    D (RIFF1)
    Quando na verdade ele é quem
    
    A F# E D (SOLO)
    Manda em nossa vida e nos dá
    O gosto da partida mesmo sem
    Nunca termos saído daqui
    É só um dia então
    Como outro dia qualquer,
    Em que você não é ninguém
    
    D (RIFF1)
    Especial pra ninguém
    


    Encontrou algum erro na letra? Por favor, envie uma correção »

    Comente
    user 300 caracteres restantes. Enviar

    Todas as letras de Dance of Days
    Escute Também

    Publicidade
    Um Dia Comum (cifrada) - Dance of Days - VAGALUME
    PLAY

    Instrumento:
    Um Dia Comum
    RIFF1
    E|------------------------------------------------------------------------|
    B|-0-0-3-0-0-2-0-0-2-0-0-2h3p0-0-0-3-0-0-2-0-0-2-0-0-3p2--------3p2-------|
    G|--------------------------------------------------------2...------2...--|
                                                       D                                        A
    
    D A (RIFF1)
    Foi-se o tempo
    Em que ter o que dizer
    Serviu pra alguma coisa que encontrei
    Sentido em manter passos
    Que nada de novo oferecem
    Ou esperanças de que
    Tudo isso irá ter fim
    	
    C A 
    Porque “Hoje é mais um dia
    Como outro dia qualquer”
    
    D (RIFF1)
    E meus olhos não acham
    Sentido algum 
    
    F# D A
    quando a luz se apaga
    E já não vejo as placas
    Me diz pra onde eu vou
    Me diz pra onde eu vou
    Quando a voz se cala
    E só me restam mágoas
    Me diz quem é que eu sou
    Me diz quem é que eu sou
    Quando a um mar de nada
    Entrego minhas forças
    
    D (RIFF1)
    E desisto de entender
    
    Umas par de vezes
    E|--------------|--------------------------------------------|
    B|-5-4-3-4-3-5--|--5/7-5-3-2-3-2---------------------2-3-2---|
    G|--------------|----------------4-2-44-4-2-4-4-4-2-------2-|
    D|--------------|--------------------------------------------|
    A|--------------|--------------------------------------------|
    E|--------------|--------------------------------------------|
    num ta muito certo mais da pra engana
    BASE DO SOLO:  A F# E D
    
    D A (RIFF1)
    De que vale olhar tanto o espelho
    Se ninguém vai te procurar?
    De que vale guardar tanto segredo
    Se ninguém se interessa
    
    C  A
    Por tudo o que você pensa
    Ter de melhor nessa na vida?
    
    D (RIFF1)
    É só mais um dia comum
    
    (F# D A)
    Em que o céu desaba
    E estrelas de lata ferem nossas mãos
    É só outra ambição
    A ser cultivada e depois destroçada
    É só outra ilusão
    Me diz pra que então
    Pensar não ser água e tentar inflamar
    Nossos corpos em vão
    Me diz qual a razão de cultivar
    A estrada quando sei que nada
    Nasce de nossas mãos.
    É inocência então
    Crer sobreviver ao dia comum
    
    D (RIFF1)
    Quando na verdade ele é quem
    
    A F# E D (SOLO)
    Manda em nossa vida e nos dá
    O gosto da partida mesmo sem
    Nunca termos saído daqui
    É só um dia então
    Como outro dia qualquer,
    Em que você não é ninguém
    
    D (RIFF1)
    Especial pra ninguém
    


    Encontrou algum erro na letra? Por favor, envie uma correção »

    Comente
    user 300 caracteres restantes. Enviar

    Todas as letras de Dance of Days
    Escute Também

    Publicidade
    Um Dia Comum (cifrada) - Dance of Days - VAGALUME
    PLAY

    Instrumento:
    Um Dia Comum
    RIFF1
    E|------------------------------------------------------------------------|
    B|-0-0-3-0-0-2-0-0-2-0-0-2h3p0-0-0-3-0-0-2-0-0-2-0-0-3p2--------3p2-------|
    G|--------------------------------------------------------2...------2...--|
                                                       D                                        A
    
    D A (RIFF1)
    Foi-se o tempo
    Em que ter o que dizer
    Serviu pra alguma coisa que encontrei
    Sentido em manter passos
    Que nada de novo oferecem
    Ou esperanças de que
    Tudo isso irá ter fim
    	
    C A 
    Porque “Hoje é mais um dia
    Como outro dia qualquer”
    
    D (RIFF1)
    E meus olhos não acham
    Sentido algum 
    
    F# D A
    quando a luz se apaga
    E já não vejo as placas
    Me diz pra onde eu vou
    Me diz pra onde eu vou
    Quando a voz se cala
    E só me restam mágoas
    Me diz quem é que eu sou
    Me diz quem é que eu sou
    Quando a um mar de nada
    Entrego minhas forças
    
    D (RIFF1)
    E desisto de entender
    
    Umas par de vezes
    E|--------------|--------------------------------------------|
    B|-5-4-3-4-3-5--|--5/7-5-3-2-3-2---------------------2-3-2---|
    G|--------------|----------------4-2-44-4-2-4-4-4-2-------2-|
    D|--------------|--------------------------------------------|
    A|--------------|--------------------------------------------|
    E|--------------|--------------------------------------------|
    num ta muito certo mais da pra engana
    BASE DO SOLO:  A F# E D
    
    D A (RIFF1)
    De que vale olhar tanto o espelho
    Se ninguém vai te procurar?
    De que vale guardar tanto segredo
    Se ninguém se interessa
    
    C  A
    Por tudo o que você pensa
    Ter de melhor nessa na vida?
    
    D (RIFF1)
    É só mais um dia comum
    
    (F# D A)
    Em que o céu desaba
    E estrelas de lata ferem nossas mãos
    É só outra ambição
    A ser cultivada e depois destroçada
    É só outra ilusão
    Me diz pra que então
    Pensar não ser água e tentar inflamar
    Nossos corpos em vão
    Me diz qual a razão de cultivar
    A estrada quando sei que nada
    Nasce de nossas mãos.
    É inocência então
    Crer sobreviver ao dia comum
    
    D (RIFF1)
    Quando na verdade ele é quem
    
    A F# E D (SOLO)
    Manda em nossa vida e nos dá
    O gosto da partida mesmo sem
    Nunca termos saído daqui
    É só um dia então
    Como outro dia qualquer,
    Em que você não é ninguém
    
    D (RIFF1)
    Especial pra ninguém
    


    Encontrou algum erro na letra? Por favor, envie uma correção »

    Comente
    user 300 caracteres restantes. Enviar

    Todas as letras de Dance of Days
    Escute Também

    Publicidade
    Um Dia Comum (cifrada) - Dance of Days - VAGALUME
    PLAY

    Instrumento:
    Um Dia Comum
    RIFF1
    E|------------------------------------------------------------------------|
    B|-0-0-3-0-0-2-0-0-2-0-0-2h3p0-0-0-3-0-0-2-0-0-2-0-0-3p2--------3p2-------|
    G|--------------------------------------------------------2...------2...--|
                                                       D                                        A
    
    D A (RIFF1)
    Foi-se o tempo
    Em que ter o que dizer
    Serviu pra alguma coisa que encontrei
    Sentido em manter passos
    Que nada de novo oferecem
    Ou esperanças de que
    Tudo isso irá ter fim
    	
    C A 
    Porque “Hoje é mais um dia
    Como outro dia qualquer”
    
    D (RIFF1)
    E meus olhos não acham
    Sentido algum 
    
    F# D A
    quando a luz se apaga
    E já não vejo as placas
    Me diz pra onde eu vou
    Me diz pra onde eu vou
    Quando a voz se cala
    E só me restam mágoas
    Me diz quem é que eu sou
    Me diz quem é que eu sou
    Quando a um mar de nada
    Entrego minhas forças
    
    D (RIFF1)
    E desisto de entender
    
    Umas par de vezes
    E|--------------|--------------------------------------------|
    B|-5-4-3-4-3-5--|--5/7-5-3-2-3-2---------------------2-3-2---|
    G|--------------|----------------4-2-44-4-2-4-4-4-2-------2-|
    D|--------------|--------------------------------------------|
    A|--------------|--------------------------------------------|
    E|--------------|--------------------------------------------|
    num ta muito certo mais da pra engana
    BASE DO SOLO:  A F# E D
    
    D A (RIFF1)
    De que vale olhar tanto o espelho
    Se ninguém vai te procurar?
    De que vale guardar tanto segredo
    Se ninguém se interessa
    
    C  A
    Por tudo o que você pensa
    Ter de melhor nessa na vida?
    
    D (RIFF1)
    É só mais um dia comum
    
    (F# D A)
    Em que o céu desaba
    E estrelas de lata ferem nossas mãos
    É só outra ambição
    A ser cultivada e depois destroçada
    É só outra ilusão
    Me diz pra que então
    Pensar não ser água e tentar inflamar
    Nossos corpos em vão
    Me diz qual a razão de cultivar
    A estrada quando sei que nada
    Nasce de nossas mãos.
    É inocência então
    Crer sobreviver ao dia comum
    
    D (RIFF1)
    Quando na verdade ele é quem
    
    A F# E D (SOLO)
    Manda em nossa vida e nos dá
    O gosto da partida mesmo sem
    Nunca termos saído daqui
    É só um dia então
    Como outro dia qualquer,
    Em que você não é ninguém
    
    D (RIFF1)
    Especial pra ninguém
    


    Encontrou algum erro na letra? Por favor, envie uma correção »

    Comente
    user 300 caracteres restantes. Enviar

    Todas as letras de Dance of Days
    Escute Também

    Publicidade
    Um Dia Comum (cifrada) - Dance of Days - VAGALUME
    PLAY

    Instrumento:
    Um Dia Comum
    RIFF1
    E|------------------------------------------------------------------------|
    B|-0-0-3-0-0-2-0-0-2-0-0-2h3p0-0-0-3-0-0-2-0-0-2-0-0-3p2--------3p2-------|
    G|--------------------------------------------------------2...------2...--|
                                                       D                                        A
    
    D A (RIFF1)
    Foi-se o tempo
    Em que ter o que dizer
    Serviu pra alguma coisa que encontrei
    Sentido em manter passos
    Que nada de novo oferecem
    Ou esperanças de que
    Tudo isso irá ter fim
    	
    C A 
    Porque “Hoje é mais um dia
    Como outro dia qualquer”
    
    D (RIFF1)
    E meus olhos não acham
    Sentido algum 
    
    F# D A
    quando a luz se apaga
    E já não vejo as placas
    Me diz pra onde eu vou
    Me diz pra onde eu vou
    Quando a voz se cala
    E só me restam mágoas
    Me diz quem é que eu sou
    Me diz quem é que eu sou
    Quando a um mar de nada
    Entrego minhas forças
    
    D (RIFF1)
    E desisto de entender
    
    Umas par de vezes
    E|--------------|--------------------------------------------|
    B|-5-4-3-4-3-5--|--5/7-5-3-2-3-2---------------------2-3-2---|
    G|--------------|----------------4-2-44-4-2-4-4-4-2-------2-|
    D|--------------|--------------------------------------------|
    A|--------------|--------------------------------------------|
    E|--------------|--------------------------------------------|
    num ta muito certo mais da pra engana
    BASE DO SOLO:  A F# E D
    
    D A (RIFF1)
    De que vale olhar tanto o espelho
    Se ninguém vai te procurar?
    De que vale guardar tanto segredo
    Se ninguém se interessa
    
    C  A
    Por tudo o que você pensa
    Ter de melhor nessa na vida?
    
    D (RIFF1)
    É só mais um dia comum
    
    (F# D A)
    Em que o céu desaba
    E estrelas de lata ferem nossas mãos
    É só outra ambição
    A ser cultivada e depois destroçada
    É só outra ilusão
    Me diz pra que então
    Pensar não ser água e tentar inflamar
    Nossos corpos em vão
    Me diz qual a razão de cultivar
    A estrada quando sei que nada
    Nasce de nossas mãos.
    É inocência então
    Crer sobreviver ao dia comum
    
    D (RIFF1)
    Quando na verdade ele é quem
    
    A F# E D (SOLO)
    Manda em nossa vida e nos dá
    O gosto da partida mesmo sem
    Nunca termos saído daqui
    É só um dia então
    Como outro dia qualquer,
    Em que você não é ninguém
    
    D (RIFF1)
    Especial pra ninguém
    


    Encontrou algum erro na letra? Por favor, envie uma correção »

    Comente
    user 300 caracteres restantes. Enviar

    Todas as letras de Dance of Days
    Escute Também

    Publicidade
    Um Dia Comum (cifrada) - Dance of Days - VAGALUME
    PLAY

    Instrumento:
    Um Dia Comum
    RIFF1
    E|------------------------------------------------------------------------|
    B|-0-0-3-0-0-2-0-0-2-0-0-2h3p0-0-0-3-0-0-2-0-0-2-0-0-3p2--------3p2-------|
    G|--------------------------------------------------------2...------2...--|
                                                       D                                        A
    
    D A (RIFF1)
    Foi-se o tempo
    Em que ter o que dizer
    Serviu pra alguma coisa que encontrei
    Sentido em manter passos
    Que nada de novo oferecem
    Ou esperanças de que
    Tudo isso irá ter fim
    	
    C A 
    Porque “Hoje é mais um dia
    Como outro dia qualquer”
    
    D (RIFF1)
    E meus olhos não acham
    Sentido algum 
    
    F# D A
    quando a luz se apaga
    E já não vejo as placas
    Me diz pra onde eu vou
    Me diz pra onde eu vou
    Quando a voz se cala
    E só me restam mágoas
    Me diz quem é que eu sou
    Me diz quem é que eu sou
    Quando a um mar de nada
    Entrego minhas forças
    
    D (RIFF1)
    E desisto de entender
    
    Umas par de vezes
    E|--------------|--------------------------------------------|
    B|-5-4-3-4-3-5--|--5/7-5-3-2-3-2---------------------2-3-2---|
    G|--------------|----------------4-2-44-4-2-4-4-4-2-------2-|
    D|--------------|--------------------------------------------|
    A|--------------|--------------------------------------------|
    E|--------------|--------------------------------------------|
    num ta muito certo mais da pra engana
    BASE DO SOLO:  A F# E D
    
    D A (RIFF1)
    De que vale olhar tanto o espelho
    Se ninguém vai te procurar?
    De que vale guardar tanto segredo
    Se ninguém se interessa
    
    C  A
    Por tudo o que você pensa
    Ter de melhor nessa na vida?
    
    D (RIFF1)
    É só mais um dia comum
    
    (F# D A)
    Em que o céu desaba
    E estrelas de lata ferem nossas mãos
    É só outra ambição
    A ser cultivada e depois destroçada
    É só outra ilusão
    Me diz pra que então
    Pensar não ser água e tentar inflamar
    Nossos corpos em vão
    Me diz qual a razão de cultivar
    A estrada quando sei que nada
    Nasce de nossas mãos.
    É inocência então
    Crer sobreviver ao dia comum
    
    D (RIFF1)
    Quando na verdade ele é quem
    
    A F# E D (SOLO)
    Manda em nossa vida e nos dá
    O gosto da partida mesmo sem
    Nunca termos saído daqui
    É só um dia então
    Como outro dia qualquer,
    Em que você não é ninguém
    
    D (RIFF1)
    Especial pra ninguém
    


    Encontrou algum erro na letra? Por favor, envie uma correção »

    Comente
    user 300 caracteres restantes. Enviar

    Todas as letras de Dance of Days
    Escute Também

    Publicidade
    Um Dia Comum (cifrada) - Dance of Days - VAGALUME
    PLAY

    Instrumento:
    Um Dia Comum
    RIFF1
    E|------------------------------------------------------------------------|
    B|-0-0-3-0-0-2-0-0-2-0-0-2h3p0-0-0-3-0-0-2-0-0-2-0-0-3p2--------3p2-------|
    G|--------------------------------------------------------2...------2...--|
                                                       D                                        A
    
    D A (RIFF1)
    Foi-se o tempo
    Em que ter o que dizer
    Serviu pra alguma coisa que encontrei
    Sentido em manter passos
    Que nada de novo oferecem
    Ou esperanças de que
    Tudo isso irá ter fim
    	
    C A 
    Porque “Hoje é mais um dia
    Como outro dia qualquer”
    
    D (RIFF1)
    E meus olhos não acham
    Sentido algum 
    
    F# D A
    quando a luz se apaga
    E já não vejo as placas
    Me diz pra onde eu vou
    Me diz pra onde eu vou
    Quando a voz se cala
    E só me restam mágoas
    Me diz quem é que eu sou
    Me diz quem é que eu sou
    Quando a um mar de nada
    Entrego minhas forças
    
    D (RIFF1)
    E desisto de entender
    
    Umas par de vezes
    E|--------------|--------------------------------------------|
    B|-5-4-3-4-3-5--|--5/7-5-3-2-3-2---------------------2-3-2---|
    G|--------------|----------------4-2-44-4-2-4-4-4-2-------2-|
    D|--------------|--------------------------------------------|
    A|--------------|--------------------------------------------|
    E|--------------|--------------------------------------------|
    num ta muito certo mais da pra engana
    BASE DO SOLO:  A F# E D
    
    D A (RIFF1)
    De que vale olhar tanto o espelho
    Se ninguém vai te procurar?
    De que vale guardar tanto segredo
    Se ninguém se interessa
    
    C  A
    Por tudo o que você pensa
    Ter de melhor nessa na vida?
    
    D (RIFF1)
    É só mais um dia comum
    
    (F# D A)
    Em que o céu desaba
    E estrelas de lata ferem nossas mãos
    É só outra ambição
    A ser cultivada e depois destroçada
    É só outra ilusão
    Me diz pra que então
    Pensar não ser água e tentar inflamar
    Nossos corpos em vão
    Me diz qual a razão de cultivar
    A estrada quando sei que nada
    Nasce de nossas mãos.
    É inocência então
    Crer sobreviver ao dia comum
    
    D (RIFF1)
    Quando na verdade ele é quem
    
    A F# E D (SOLO)
    Manda em nossa vida e nos dá
    O gosto da partida mesmo sem
    Nunca termos saído daqui
    É só um dia então
    Como outro dia qualquer,
    Em que você não é ninguém
    
    D (RIFF1)
    Especial pra ninguém
    


    Encontrou algum erro na letra? Por favor, envie uma correção »

    Comente
    user 300 caracteres restantes. Enviar

    Todas as letras de Dance of Days
    Escute Também

    Publicidade
    Um Dia Comum (cifrada) - Dance of Days - VAGALUME
    PLAY

    Instrumento:
    Um Dia Comum
    RIFF1
    E|------------------------------------------------------------------------|
    B|-0-0-3-0-0-2-0-0-2-0-0-2h3p0-0-0-3-0-0-2-0-0-2-0-0-3p2--------3p2-------|
    G|--------------------------------------------------------2...------2...--|
                                                       D                                        A
    
    D A (RIFF1)
    Foi-se o tempo
    Em que ter o que dizer
    Serviu pra alguma coisa que encontrei
    Sentido em manter passos
    Que nada de novo oferecem
    Ou esperanças de que
    Tudo isso irá ter fim
    	
    C A 
    Porque “Hoje é mais um dia
    Como outro dia qualquer”
    
    D (RIFF1)
    E meus olhos não acham
    Sentido algum 
    
    F# D A
    quando a luz se apaga
    E já não vejo as placas
    Me diz pra onde eu vou
    Me diz pra onde eu vou
    Quando a voz se cala
    E só me restam mágoas
    Me diz quem é que eu sou
    Me diz quem é que eu sou
    Quando a um mar de nada
    Entrego minhas forças
    
    D (RIFF1)
    E desisto de entender
    
    Umas par de vezes
    E|--------------|--------------------------------------------|
    B|-5-4-3-4-3-5--|--5/7-5-3-2-3-2---------------------2-3-2---|
    G|--------------|----------------4-2-44-4-2-4-4-4-2-------2-|
    D|--------------|--------------------------------------------|
    A|--------------|--------------------------------------------|
    E|--------------|--------------------------------------------|
    num ta muito certo mais da pra engana
    BASE DO SOLO:  A F# E D
    
    D A (RIFF1)
    De que vale olhar tanto o espelho
    Se ninguém vai te procurar?
    De que vale guardar tanto segredo
    Se ninguém se interessa
    
    C  A
    Por tudo o que você pensa
    Ter de melhor nessa na vida?
    
    D (RIFF1)
    É só mais um dia comum
    
    (F# D A)
    Em que o céu desaba
    E estrelas de lata ferem nossas mãos
    É só outra ambição
    A ser cultivada e depois destroçada
    É só outra ilusão
    Me diz pra que então
    Pensar não ser água e tentar inflamar
    Nossos corpos em vão
    Me diz qual a razão de cultivar
    A estrada quando sei que nada
    Nasce de nossas mãos.
    É inocência então
    Crer sobreviver ao dia comum
    
    D (RIFF1)
    Quando na verdade ele é quem
    
    A F# E D (SOLO)
    Manda em nossa vida e nos dá
    O gosto da partida mesmo sem
    Nunca termos saído daqui
    É só um dia então
    Como outro dia qualquer,
    Em que você não é ninguém
    
    D (RIFF1)
    Especial pra ninguém
    


    Encontrou algum erro na letra? Por favor, envie uma correção »

    Comente
    user 300 caracteres restantes. Enviar

    Todas as letras de Dance of Days
    Escute Também

    Publicidade
    Um Dia Comum (cifrada) - Dance of Days - VAGALUME
    PLAY

    Instrumento:
    Um Dia Comum
    RIFF1
    E|------------------------------------------------------------------------|
    B|-0-0-3-0-0-2-0-0-2-0-0-2h3p0-0-0-3-0-0-2-0-0-2-0-0-3p2--------3p2-------|
    G|--------------------------------------------------------2...------2...--|
                                                       D                                        A
    
    D A (RIFF1)
    Foi-se o tempo
    Em que ter o que dizer
    Serviu pra alguma coisa que encontrei
    Sentido em manter passos
    Que nada de novo oferecem
    Ou esperanças de que
    Tudo isso irá ter fim
    	
    C A 
    Porque “Hoje é mais um dia
    Como outro dia qualquer”
    
    D (RIFF1)
    E meus olhos não acham
    Sentido algum 
    
    F# D A
    quando a luz se apaga
    E já não vejo as placas
    Me diz pra onde eu vou
    Me diz pra onde eu vou
    Quando a voz se cala
    E só me restam mágoas
    Me diz quem é que eu sou
    Me diz quem é que eu sou
    Quando a um mar de nada
    Entrego minhas forças
    
    D (RIFF1)
    E desisto de entender
    
    Umas par de vezes
    E|--------------|--------------------------------------------|
    B|-5-4-3-4-3-5--|--5/7-5-3-2-3-2---------------------2-3-2---|
    G|--------------|----------------4-2-44-4-2-4-4-4-2-------2-|
    D|--------------|--------------------------------------------|
    A|--------------|--------------------------------------------|
    E|--------------|--------------------------------------------|
    num ta muito certo mais da pra engana
    BASE DO SOLO:  A F# E D
    
    D A (RIFF1)
    De que vale olhar tanto o espelho
    Se ninguém vai te procurar?
    De que vale guardar tanto segredo
    Se ninguém se interessa
    
    C  A
    Por tudo o que você pensa
    Ter de melhor nessa na vida?
    
    D (RIFF1)
    É só mais um dia comum
    
    (F# D A)
    Em que o céu desaba
    E estrelas de lata ferem nossas mãos
    É só outra ambição
    A ser cultivada e depois destroçada
    É só outra ilusão
    Me diz pra que então
    Pensar não ser água e tentar inflamar
    Nossos corpos em vão
    Me diz qual a razão de cultivar
    A estrada quando sei que nada
    Nasce de nossas mãos.
    É inocência então
    Crer sobreviver ao dia comum
    
    D (RIFF1)
    Quando na verdade ele é quem
    
    A F# E D (SOLO)
    Manda em nossa vida e nos dá
    O gosto da partida mesmo sem
    Nunca termos saído daqui
    É só um dia então
    Como outro dia qualquer,
    Em que você não é ninguém
    
    D (RIFF1)
    Especial pra ninguém
    


    Encontrou algum erro na letra? Por favor, envie uma correção »

    Comente
    user 300 caracteres restantes. Enviar

    Todas as letras de Dance of Days
    Escute Também

    Publicidade
    Um Dia Comum (cifrada) - Dance of Days - VAGALUME
    PLAY

    Instrumento:
    Um Dia Comum
    RIFF1
    E|------------------------------------------------------------------------|
    B|-0-0-3-0-0-2-0-0-2-0-0-2h3p0-0-0-3-0-0-2-0-0-2-0-0-3p2--------3p2-------|
    G|--------------------------------------------------------2...------2...--|
                                                       D                                        A
    
    D A (RIFF1)
    Foi-se o tempo
    Em que ter o que dizer
    Serviu pra alguma coisa que encontrei
    Sentido em manter passos
    Que nada de novo oferecem
    Ou esperanças de que
    Tudo isso irá ter fim
    	
    C A 
    Porque “Hoje é mais um dia
    Como outro dia qualquer”
    
    D (RIFF1)
    E meus olhos não acham
    Sentido algum 
    
    F# D A
    quando a luz se apaga
    E já não vejo as placas
    Me diz pra onde eu vou
    Me diz pra onde eu vou
    Quando a voz se cala
    E só me restam mágoas
    Me diz quem é que eu sou
    Me diz quem é que eu sou
    Quando a um mar de nada
    Entrego minhas forças
    
    D (RIFF1)
    E desisto de entender
    
    Umas par de vezes
    E|--------------|--------------------------------------------|
    B|-5-4-3-4-3-5--|--5/7-5-3-2-3-2---------------------2-3-2---|
    G|--------------|----------------4-2-44-4-2-4-4-4-2-------2-|
    D|--------------|--------------------------------------------|
    A|--------------|--------------------------------------------|
    E|--------------|--------------------------------------------|
    num ta muito certo mais da pra engana
    BASE DO SOLO:  A F# E D
    
    D A (RIFF1)
    De que vale olhar tanto o espelho
    Se ninguém vai te procurar?
    De que vale guardar tanto segredo
    Se ninguém se interessa
    
    C  A
    Por tudo o que você pensa
    Ter de melhor nessa na vida?
    
    D (RIFF1)
    É só mais um dia comum
    
    (F# D A)
    Em que o céu desaba
    E estrelas de lata ferem nossas mãos
    É só outra ambição
    A ser cultivada e depois destroçada
    É só outra ilusão
    Me diz pra que então
    Pensar não ser água e tentar inflamar
    Nossos corpos em vão
    Me diz qual a razão de cultivar
    A estrada quando sei que nada
    Nasce de nossas mãos.
    É inocência então
    Crer sobreviver ao dia comum
    
    D (RIFF1)
    Quando na verdade ele é quem
    
    A F# E D (SOLO)
    Manda em nossa vida e nos dá
    O gosto da partida mesmo sem
    Nunca termos saído daqui
    É só um dia então
    Como outro dia qualquer,
    Em que você não é ninguém
    
    D (RIFF1)
    Especial pra ninguém
    


    Encontrou algum erro na letra? Por favor, envie uma correção »

    Comente
    user 300 caracteres restantes. Enviar

    Todas as letras de Dance of Days
    Escute Também

    Publicidade
    Um Dia Comum (cifrada) - Dance of Days - VAGALUME
    PLAY

    Instrumento:
    Um Dia Comum
    RIFF1
    E|------------------------------------------------------------------------|
    B|-0-0-3-0-0-2-0-0-2-0-0-2h3p0-0-0-3-0-0-2-0-0-2-0-0-3p2--------3p2-------|
    G|--------------------------------------------------------2...------2...--|
                                                       D                                        A
    
    D A (RIFF1)
    Foi-se o tempo
    Em que ter o que dizer
    Serviu pra alguma coisa que encontrei
    Sentido em manter passos
    Que nada de novo oferecem
    Ou esperanças de que
    Tudo isso irá ter fim
    	
    C A 
    Porque “Hoje é mais um dia
    Como outro dia qualquer”
    
    D (RIFF1)
    E meus olhos não acham
    Sentido algum 
    
    F# D A
    quando a luz se apaga
    E já não vejo as placas
    Me diz pra onde eu vou
    Me diz pra onde eu vou
    Quando a voz se cala
    E só me restam mágoas
    Me diz quem é que eu sou
    Me diz quem é que eu sou
    Quando a um mar de nada
    Entrego minhas forças
    
    D (RIFF1)
    E desisto de entender
    
    Umas par de vezes
    E|--------------|--------------------------------------------|
    B|-5-4-3-4-3-5--|--5/7-5-3-2-3-2---------------------2-3-2---|
    G|--------------|----------------4-2-44-4-2-4-4-4-2-------2-|
    D|--------------|--------------------------------------------|
    A|--------------|--------------------------------------------|
    E|--------------|--------------------------------------------|
    num ta muito certo mais da pra engana
    BASE DO SOLO:  A F# E D
    
    D A (RIFF1)
    De que vale olhar tanto o espelho
    Se ninguém vai te procurar?
    De que vale guardar tanto segredo
    Se ninguém se interessa
    
    C  A
    Por tudo o que você pensa
    Ter de melhor nessa na vida?
    
    D (RIFF1)
    É só mais um dia comum
    
    (F# D A)
    Em que o céu desaba
    E estrelas de lata ferem nossas mãos
    É só outra ambição
    A ser cultivada e depois destroçada
    É só outra ilusão
    Me diz pra que então
    Pensar não ser água e tentar inflamar
    Nossos corpos em vão
    Me diz qual a razão de cultivar
    A estrada quando sei que nada
    Nasce de nossas mãos.
    É inocência então
    Crer sobreviver ao dia comum
    
    D (RIFF1)
    Quando na verdade ele é quem
    
    A F# E D (SOLO)
    Manda em nossa vida e nos dá
    O gosto da partida mesmo sem
    Nunca termos saído daqui
    É só um dia então
    Como outro dia qualquer,
    Em que você não é ninguém
    
    D (RIFF1)
    Especial pra ninguém
    


    Encontrou algum erro na letra? Por favor, envie uma correção »

    Comente
    user 300 caracteres restantes. Enviar

    Todas as letras de Dance of Days
    Escute Também

    Publicidade
    Um Dia Comum (cifrada) - Dance of Days - VAGALUME
    PLAY

    Instrumento:
    Um Dia Comum
    RIFF1
    E|------------------------------------------------------------------------|
    B|-0-0-3-0-0-2-0-0-2-0-0-2h3p0-0-0-3-0-0-2-0-0-2-0-0-3p2--------3p2-------|
    G|--------------------------------------------------------2...------2...--|
                                                       D                                        A
    
    D A (RIFF1)
    Foi-se o tempo
    Em que ter o que dizer
    Serviu pra alguma coisa que encontrei
    Sentido em manter passos
    Que nada de novo oferecem
    Ou esperanças de que
    Tudo isso irá ter fim
    	
    C A 
    Porque “Hoje é mais um dia
    Como outro dia qualquer”
    
    D (RIFF1)
    E meus olhos não acham
    Sentido algum 
    
    F# D A
    quando a luz se apaga
    E já não vejo as placas
    Me diz pra onde eu vou
    Me diz pra onde eu vou
    Quando a voz se cala
    E só me restam mágoas
    Me diz quem é que eu sou
    Me diz quem é que eu sou
    Quando a um mar de nada
    Entrego minhas forças
    
    D (RIFF1)
    E desisto de entender
    
    Umas par de vezes
    E|--------------|--------------------------------------------|
    B|-5-4-3-4-3-5--|--5/7-5-3-2-3-2---------------------2-3-2---|
    G|--------------|----------------4-2-44-4-2-4-4-4-2-------2-|
    D|--------------|--------------------------------------------|
    A|--------------|--------------------------------------------|
    E|--------------|--------------------------------------------|
    num ta muito certo mais da pra engana
    BASE DO SOLO:  A F# E D
    
    D A (RIFF1)
    De que vale olhar tanto o espelho
    Se ninguém vai te procurar?
    De que vale guardar tanto segredo
    Se ninguém se interessa
    
    C  A
    Por tudo o que você pensa
    Ter de melhor nessa na vida?
    
    D (RIFF1)
    É só mais um dia comum
    
    (F# D A)
    Em que o céu desaba
    E estrelas de lata ferem nossas mãos
    É só outra ambição
    A ser cultivada e depois destroçada
    É só outra ilusão
    Me diz pra que então
    Pensar não ser água e tentar inflamar
    Nossos corpos em vão
    Me diz qual a razão de cultivar
    A estrada quando sei que nada
    Nasce de nossas mãos.
    É inocência então
    Crer sobreviver ao dia comum
    
    D (RIFF1)
    Quando na verdade ele é quem
    
    A F# E D (SOLO)
    Manda em nossa vida e nos dá
    O gosto da partida mesmo sem
    Nunca termos saído daqui
    É só um dia então
    Como outro dia qualquer,
    Em que você não é ninguém
    
    D (RIFF1)
    Especial pra ninguém
    


    Encontrou algum erro na letra? Por favor, envie uma correção »

    Comente
    user 300 caracteres restantes. Enviar

    Todas as letras de Dance of Days
    Escute Também

    Publicidade
    Um Dia Comum (cifrada) - Dance of Days - VAGALUME
    PLAY

    Instrumento:
    Um Dia Comum
    RIFF1
    E|------------------------------------------------------------------------|
    B|-0-0-3-0-0-2-0-0-2-0-0-2h3p0-0-0-3-0-0-2-0-0-2-0-0-3p2--------3p2-------|
    G|--------------------------------------------------------2...------2...--|
                                                       D                                        A
    
    D A (RIFF1)
    Foi-se o tempo
    Em que ter o que dizer
    Serviu pra alguma coisa que encontrei
    Sentido em manter passos
    Que nada de novo oferecem
    Ou esperanças de que
    Tudo isso irá ter fim
    	
    C A 
    Porque “Hoje é mais um dia
    Como outro dia qualquer”
    
    D (RIFF1)
    E meus olhos não acham
    Sentido algum 
    
    F# D A
    quando a luz se apaga
    E já não vejo as placas
    Me diz pra onde eu vou
    Me diz pra onde eu vou
    Quando a voz se cala
    E só me restam mágoas
    Me diz quem é que eu sou
    Me diz quem é que eu sou
    Quando a um mar de nada
    Entrego minhas forças
    
    D (RIFF1)
    E desisto de entender
    
    Umas par de vezes
    E|--------------|--------------------------------------------|
    B|-5-4-3-4-3-5--|--5/7-5-3-2-3-2---------------------2-3-2---|
    G|--------------|----------------4-2-44-4-2-4-4-4-2-------2-|
    D|--------------|--------------------------------------------|
    A|--------------|--------------------------------------------|
    E|--------------|--------------------------------------------|
    num ta muito certo mais da pra engana
    BASE DO SOLO:  A F# E D
    
    D A (RIFF1)
    De que vale olhar tanto o espelho
    Se ninguém vai te procurar?
    De que vale guardar tanto segredo
    Se ninguém se interessa
    
    C  A
    Por tudo o que você pensa
    Ter de melhor nessa na vida?
    
    D (RIFF1)
    É só mais um dia comum
    
    (F# D A)
    Em que o céu desaba
    E estrelas de lata ferem nossas mãos
    É só outra ambição
    A ser cultivada e depois destroçada
    É só outra ilusão
    Me diz pra que então
    Pensar não ser água e tentar inflamar
    Nossos corpos em vão
    Me diz qual a razão de cultivar
    A estrada quando sei que nada
    Nasce de nossas mãos.
    É inocência então
    Crer sobreviver ao dia comum
    
    D (RIFF1)
    Quando na verdade ele é quem
    
    A F# E D (SOLO)
    Manda em nossa vida e nos dá
    O gosto da partida mesmo sem
    Nunca termos saído daqui
    É só um dia então
    Como outro dia qualquer,
    Em que você não é ninguém
    
    D (RIFF1)
    Especial pra ninguém
    


    Encontrou algum erro na letra? Por favor, envie uma correção »

    Comente
    user 300 caracteres restantes. Enviar

    Todas as letras de Dance of Days
    Escute Também

    Publicidade
    Um Dia Comum (cifrada) - Dance of Days - VAGALUME
    PLAY

    Instrumento:
    Um Dia Comum
    RIFF1
    E|------------------------------------------------------------------------|
    B|-0-0-3-0-0-2-0-0-2-0-0-2h3p0-0-0-3-0-0-2-0-0-2-0-0-3p2--------3p2-------|
    G|--------------------------------------------------------2...------2...--|
                                                       D                                        A
    
    D A (RIFF1)
    Foi-se o tempo
    Em que ter o que dizer
    Serviu pra alguma coisa que encontrei
    Sentido em manter passos
    Que nada de novo oferecem
    Ou esperanças de que
    Tudo isso irá ter fim
    	
    C A 
    Porque “Hoje é mais um dia
    Como outro dia qualquer”
    
    D (RIFF1)
    E meus olhos não acham
    Sentido algum 
    
    F# D A
    quando a luz se apaga
    E já não vejo as placas
    Me diz pra onde eu vou
    Me diz pra onde eu vou
    Quando a voz se cala
    E só me restam mágoas
    Me diz quem é que eu sou
    Me diz quem é que eu sou
    Quando a um mar de nada
    Entrego minhas forças
    
    D (RIFF1)
    E desisto de entender
    
    Umas par de vezes
    E|--------------|--------------------------------------------|
    B|-5-4-3-4-3-5--|--5/7-5-3-2-3-2---------------------2-3-2---|
    G|--------------|----------------4-2-44-4-2-4-4-4-2-------2-|
    D|--------------|--------------------------------------------|
    A|--------------|--------------------------------------------|
    E|--------------|--------------------------------------------|
    num ta muito certo mais da pra engana
    BASE DO SOLO:  A F# E D
    
    D A (RIFF1)
    De que vale olhar tanto o espelho
    Se ninguém vai te procurar?
    De que vale guardar tanto segredo
    Se ninguém se interessa
    
    C  A
    Por tudo o que você pensa
    Ter de melhor nessa na vida?
    
    D (RIFF1)
    É só mais um dia comum
    
    (F# D A)
    Em que o céu desaba
    E estrelas de lata ferem nossas mãos
    É só outra ambição
    A ser cultivada e depois destroçada
    É só outra ilusão
    Me diz pra que então
    Pensar não ser água e tentar inflamar
    Nossos corpos em vão
    Me diz qual a razão de cultivar
    A estrada quando sei que nada
    Nasce de nossas mãos.
    É inocência então
    Crer sobreviver ao dia comum
    
    D (RIFF1)
    Quando na verdade ele é quem
    
    A F# E D (SOLO)
    Manda em nossa vida e nos dá
    O gosto da partida mesmo sem
    Nunca termos saído daqui
    É só um dia então
    Como outro dia qualquer,
    Em que você não é ninguém
    
    D (RIFF1)
    Especial pra ninguém
    


    Encontrou algum erro na letra? Por favor, envie uma correção »

    Comente
    user 300 caracteres restantes. Enviar

    Todas as letras de Dance of Days
    Escute Também

    Publicidade
    Um Dia Comum (cifrada) - Dance of Days - VAGALUME
    PLAY

    Instrumento:
    Um Dia Comum
    RIFF1
    E|------------------------------------------------------------------------|
    B|-0-0-3-0-0-2-0-0-2-0-0-2h3p0-0-0-3-0-0-2-0-0-2-0-0-3p2--------3p2-------|
    G|--------------------------------------------------------2...------2...--|
                                                       D                                        A
    
    D A (RIFF1)
    Foi-se o tempo
    Em que ter o que dizer
    Serviu pra alguma coisa que encontrei
    Sentido em manter passos
    Que nada de novo oferecem
    Ou esperanças de que
    Tudo isso irá ter fim
    	
    C A 
    Porque “Hoje é mais um dia
    Como outro dia qualquer”
    
    D (RIFF1)
    E meus olhos não acham
    Sentido algum 
    
    F# D A
    quando a luz se apaga
    E já não vejo as placas
    Me diz pra onde eu vou
    Me diz pra onde eu vou
    Quando a voz se cala
    E só me restam mágoas
    Me diz quem é que eu sou
    Me diz quem é que eu sou
    Quando a um mar de nada
    Entrego minhas forças
    
    D (RIFF1)
    E desisto de entender
    
    Umas par de vezes
    E|--------------|--------------------------------------------|
    B|-5-4-3-4-3-5--|--5/7-5-3-2-3-2---------------------2-3-2---|
    G|--------------|----------------4-2-44-4-2-4-4-4-2-------2-|
    D|--------------|--------------------------------------------|
    A|--------------|--------------------------------------------|
    E|--------------|--------------------------------------------|
    num ta muito certo mais da pra engana
    BASE DO SOLO:  A F# E D
    
    D A (RIFF1)
    De que vale olhar tanto o espelho
    Se ninguém vai te procurar?
    De que vale guardar tanto segredo
    Se ninguém se interessa
    
    C  A
    Por tudo o que você pensa
    Ter de melhor nessa na vida?
    
    D (RIFF1)
    É só mais um dia comum
    
    (F# D A)
    Em que o céu desaba
    E estrelas de lata ferem nossas mãos
    É só outra ambição
    A ser cultivada e depois destroçada
    É só outra ilusão
    Me diz pra que então
    Pensar não ser água e tentar inflamar
    Nossos corpos em vão
    Me diz qual a razão de cultivar
    A estrada quando sei que nada
    Nasce de nossas mãos.
    É inocência então
    Crer sobreviver ao dia comum
    
    D (RIFF1)
    Quando na verdade ele é quem
    
    A F# E D (SOLO)
    Manda em nossa vida e nos dá
    O gosto da partida mesmo sem
    Nunca termos saído daqui
    É só um dia então
    Como outro dia qualquer,
    Em que você não é ninguém
    
    D (RIFF1)
    Especial pra ninguém
    


    Encontrou algum erro na letra? Por favor, envie uma correção »

    Comente
    user 300 caracteres restantes. Enviar

    Todas as letras de Dance of Days
    Escute Também

    Publicidade
    Um Dia Comum (cifrada) - Dance of Days - VAGALUME
    PLAY

    Instrumento:
    Um Dia Comum
    RIFF1
    E|------------------------------------------------------------------------|
    B|-0-0-3-0-0-2-0-0-2-0-0-2h3p0-0-0-3-0-0-2-0-0-2-0-0-3p2--------3p2-------|
    G|--------------------------------------------------------2...------2...--|
                                                       D                                        A
    
    D A (RIFF1)
    Foi-se o tempo
    Em que ter o que dizer
    Serviu pra alguma coisa que encontrei
    Sentido em manter passos
    Que nada de novo oferecem
    Ou esperanças de que
    Tudo isso irá ter fim
    	
    C A 
    Porque “Hoje é mais um dia
    Como outro dia qualquer”
    
    D (RIFF1)
    E meus olhos não acham
    Sentido algum 
    
    F# D A
    quando a luz se apaga
    E já não vejo as placas
    Me diz pra onde eu vou
    Me diz pra onde eu vou
    Quando a voz se cala
    E só me restam mágoas
    Me diz quem é que eu sou
    Me diz quem é que eu sou
    Quando a um mar de nada
    Entrego minhas forças
    
    D (RIFF1)
    E desisto de entender
    
    Umas par de vezes
    E|--------------|--------------------------------------------|
    B|-5-4-3-4-3-5--|--5/7-5-3-2-3-2---------------------2-3-2---|
    G|--------------|----------------4-2-44-4-2-4-4-4-2-------2-|
    D|--------------|--------------------------------------------|
    A|--------------|--------------------------------------------|
    E|--------------|--------------------------------------------|
    num ta muito certo mais da pra engana
    BASE DO SOLO:  A F# E D
    
    D A (RIFF1)
    De que vale olhar tanto o espelho
    Se ninguém vai te procurar?
    De que vale guardar tanto segredo
    Se ninguém se interessa
    
    C  A
    Por tudo o que você pensa
    Ter de melhor nessa na vida?
    
    D (RIFF1)
    É só mais um dia comum
    
    (F# D A)
    Em que o céu desaba
    E estrelas de lata ferem nossas mãos
    É só outra ambição
    A ser cultivada e depois destroçada
    É só outra ilusão
    Me diz pra que então
    Pensar não ser água e tentar inflamar
    Nossos corpos em vão
    Me diz qual a razão de cultivar
    A estrada quando sei que nada
    Nasce de nossas mãos.
    É inocência então
    Crer sobreviver ao dia comum
    
    D (RIFF1)
    Quando na verdade ele é quem
    
    A F# E D (SOLO)
    Manda em nossa vida e nos dá
    O gosto da partida mesmo sem
    Nunca termos saído daqui
    É só um dia então
    Como outro dia qualquer,
    Em que você não é ninguém
    
    D (RIFF1)
    Especial pra ninguém
    


    Encontrou algum erro na letra? Por favor, envie uma correção »

    Comente
    user 300 caracteres restantes. Enviar

    Todas as letras de Dance of Days
    Escute Também

    Publicidade
    Um Dia Comum (cifrada) - Dance of Days - VAGALUME
    PLAY

    Instrumento:
    Um Dia Comum
    RIFF1
    E|------------------------------------------------------------------------|
    B|-0-0-3-0-0-2-0-0-2-0-0-2h3p0-0-0-3-0-0-2-0-0-2-0-0-3p2--------3p2-------|
    G|--------------------------------------------------------2...------2...--|
                                                       D                                        A
    
    D A (RIFF1)
    Foi-se o tempo
    Em que ter o que dizer
    Serviu pra alguma coisa que encontrei
    Sentido em manter passos
    Que nada de novo oferecem
    Ou esperanças de que
    Tudo isso irá ter fim
    	
    C A 
    Porque “Hoje é mais um dia
    Como outro dia qualquer”
    
    D (RIFF1)
    E meus olhos não acham
    Sentido algum 
    
    F# D A
    quando a luz se apaga
    E já não vejo as placas
    Me diz pra onde eu vou
    Me diz pra onde eu vou
    Quando a voz se cala
    E só me restam mágoas
    Me diz quem é que eu sou
    Me diz quem é que eu sou
    Quando a um mar de nada
    Entrego minhas forças
    
    D (RIFF1)
    E desisto de entender
    
    Umas par de vezes
    E|--------------|--------------------------------------------|
    B|-5-4-3-4-3-5--|--5/7-5-3-2-3-2---------------------2-3-2---|
    G|--------------|----------------4-2-44-4-2-4-4-4-2-------2-|
    D|--------------|--------------------------------------------|
    A|--------------|--------------------------------------------|
    E|--------------|--------------------------------------------|
    num ta muito certo mais da pra engana
    BASE DO SOLO:  A F# E D
    
    D A (RIFF1)
    De que vale olhar tanto o espelho
    Se ninguém vai te procurar?
    De que vale guardar tanto segredo
    Se ninguém se interessa
    
    C  A
    Por tudo o que você pensa
    Ter de melhor nessa na vida?
    
    D (RIFF1)
    É só mais um dia comum
    
    (F# D A)
    Em que o céu desaba
    E estrelas de lata ferem nossas mãos
    É só outra ambição
    A ser cultivada e depois destroçada
    É só outra ilusão
    Me diz pra que então
    Pensar não ser água e tentar inflamar
    Nossos corpos em vão
    Me diz qual a razão de cultivar
    A estrada quando sei que nada
    Nasce de nossas mãos.
    É inocência então
    Crer sobreviver ao dia comum
    
    D (RIFF1)
    Quando na verdade ele é quem
    
    A F# E D (SOLO)
    Manda em nossa vida e nos dá
    O gosto da partida mesmo sem
    Nunca termos saído daqui
    É só um dia então
    Como outro dia qualquer,
    Em que você não é ninguém
    
    D (RIFF1)
    Especial pra ninguém
    


    Encontrou algum erro na letra? Por favor, envie uma correção »

    Comente
    user 300 caracteres restantes. Enviar

    Todas as letras de Dance of Days
    Escute Também

    Publicidade
    Um Dia Comum (cifrada) - Dance of Days - VAGALUME