Muito mais que só letras de músicas

  • Vagalume
  • A-Z
  • Estilos
  • Top 100
  • Playlists
  • Hot Spots
  • Notícias
  • PLAY

    Instrumento:
    Intro:
    
    E|--------------------------------------------------------------------------------|
    B|---6p7-6-4-6-4-2-4-(2)----------------------------------------------------------|
    G|-------------------3/43-(3)-44-33----------------------------------------------| 2x
    D|-------------------------------------44-66--------------------------------------|
    A|--------------------------------------------------------------------------------|
    E|--------------------------------------------------------------------------------|
    
    
    F#
      Por trás de cada passo seu
    B
      Retratos e histórias
    C#          D#m C#
      Vão lembrar
    B
      Sempre estarei bem pertu de vc
    F#
      Por trás de cada passo seu
    B
      Sempre escuto as ruas
    C#           D#m  C#
      Pra lembrar
    B
      O dia andamos junto por aqui
    D#m
      em tardes tristes eu pensei
    C#    B     
      Onde foi que eu errei 
    D#m 
      Mas um dia ruim 
    C#       B
      Andado só pelas ruas
     
     
        B            
       Se eu puder     
       F#               
       Te encontrar      
       D#m                               
       Qualquer hora em   / Refrão 
            C#          /                 
       Qualquer lugar   /              
       B              /          
       Aonde vou estar/  
         
    
    Final:
    F#  C# B
    
    No finalzinho tem esse solinho (Enviado por Jamilie)
    E|-----------------------------------------------|
    B|-----------------------------------------------|
    G|-------------------3/43------------------------| 2x
    D|-------------------------4---------------------|
    A|---------------------------2-------------------|
    E|-----------------------------------------------|
    
    
    Contribuição: david kelvin(davidkelvin@bol.com.br)
    
    
    
    Versão 2:
    
    Intro:
     
    E|--1/2-1---1--------------------------------------------------------
    B|--------4---4-2-4-2-2-2-2-2-2-2------------------------------------   
    G|-------------------------------*(333)-3-3-3-3-3-3-3-4-4-3-3----1-1-  2x
    D|-----------------------------------------------------------4-4-----
    A|-------------------------------------------------------------------
    E|-------------------------------------------------------------------
     
    *(333) é uma viradinha bem rápida, ouça a musica.
     
    F#m5
      Por trás de cada passo seu
    B5
      Retratos e histórias
    C#m5         D#m5 C#m5
      Vão lembrar
    B5
      Sempre estarei bem pertu de vc
    F#m5
      Por trás de cada passo seu
    B5
      Sempre escuto as ruas
    C#m5          D#m5 C#m5
      Pra lembrar
    B5
      O dia andamos junto por aqui
    D#m5
      Por tardes tristes eu pensei
    C#m5   B5     
      Onde foi que eu errei 
    D#m5 
      Mas um dia ruim 
    C#m5      B5
      Andado só pelas ruas
     
    Refrão
     
    
       B5
       Se eu puder
       F#m5
       Te encontrar
       D#m5              
     Qualquer hora em
            C#m5                           
       Qualquer lugar                 
       B5                        
       Aonde vou estar


    Comente
    user 300 caracteres restantes. Enviar

    Todas as letras de CPM 22

    Publicidade
    Notícias
    Mais notícias »
    Hot Spot
    Top Músicas do Vagalume
    Top 100 »

    As informações deste site são postadas integralmente pelos usuários. É importante dizer que é possível que os dados estejam desatualizados ou incorretos, sendo assim, o Vagalume exime-se de qualquer responsabilidade sobre as informações publicadas.Caso haja interesse em remover ou alterar alguma informação, entre em contato conosco.


    É permitida somente a visualização no site das letras de músicas encontradas aqui, vedada sua reprodução através de quaisquer outros meios (Lei 9610/98).Todas as letras de músicas são propriedade dos seus respectivos autores e divulgadas somente para fins educacionais.All lyrics are property and copyright of their owners. All lyrics are provided for educational purposes only.