Muito mais que só letras de músicas

  • Vagalume
  • A-Z
  • Estilos
  • Top 100
  • Playlists
  • Hot Spots
  • Notícias
  • PLAY

    Instrumento:
    Verso:
                               D
    Sei como que as coisas são
                 G                 Bm           A                    G 
    Mas nunca que vou compreender, ignorância e julgamento, sem porque
            D             G                
    ideias que, foram deixadas para trás 
    Bm                       A                G
    Seguir em frente, o que passou não volta mais
    
    Pré-refrão:
    A              G             D
    facilmente não existe por aqui
    A                  G              D
    simplesmente não é assim como se diz
    A                G
    posso até estar errado mas nem penso em desistir
    
    Pré-refrão/Guitarra 2:
    
    E||---------------------10-10-10-||
    B||-10-----------8-8-8--10-10-10-||
    G||-9---8vezes---7-7-7-----------||
    D||------------------------------||
    A||------------------------------||
    E||------------------------------||
    
    
    Refrão:
    D        G    Bm    A
    Desconfio que, foi sempre assim
    D         G    Bm  A
    Chega de mentir, e de iludir
    D         G       Bm        A
    Encarar de frente, ao que temos a fazer
    D        G    Bm          A
    Desconfio que, é bem melhor assim
    
    
    Refrão/ Guitarra 2:
    E||-10-10-10-10-10--9--9--9--9-10-10-10-10--9-12-12-12-12-|
    B||-10-10-10-10-10-10-10-10-10-10-10-10-10-10-10-10-10-10-|
    
    
    
    Riff: 
    E||--------------------------------||
    B||--------------------------------||
    G||--------------------------------||
    D||-7-7-7-7-7-7-6/7-7--7-7-7-7-6/7-||
    A||-5-5-5-4-5-5-4/5-5--5-5-5-5-4/5-||
    E||--------------------------------||
    
    
    Verso:
    D                         G 
    Ouvi dizer, muitos não estão mais nem aí
               Bm            A              G
    para as palavras de um homem que está bem perto daqui
    D                        G
    Melhor Correr, enquanto há tempo para nós
               Bm           A           G
    Antes que tudo vá pros ares sem ouvir a nossa voz
    
    Pré-refrão:
    A              G             D
    Facilmente não existe por aqui
    A                  G              D
    Simplesmente não é assim como se diz
    A                 G
    mesmo assim não vou me arrepender daquilo que não fiz
    
    Refrão:
    D        G    Bm     A
    Desconfio que, foi sempre assim
    D         G    Bm  A
    Chega de mentir, e de iludir
    D         G       Bm        A
    Encarar de frente, ao que temos a fazer
    D        G    Bm          A
    Desconfio que, é bem melhor assim
    
    E||----------------------------------------||
    B||----------------------------------------||
    G||--------------------------------7-7-7-7-||
    D||-7-7-7-7-7-7-6/7-7--7-7-7-7-6/7-7-7-7-7-||
    A||-5-5-5-4-5-5-4/5-5--5-5-5-5-4/5-5-5-5-5-||
    E||----------------------------------------||
    
    Ponte: E|-G|-D 3x E|-G|-A
    
    e||------------------------------------|
    B||-8-8-7-8-7---7-8-7---7--------------|
    G||-----------7-------7---7------------|
    D||------------------------------------|
    A||------------------------------------|
    E||------------------------------------|
    
    e||---------------------------------------|
    B||-8-8-7-8-7-----------------------------|
    G||----------7-9-7----7---7---7---7-9-7---|
    D||-----------------7---7---7---7---------|
    A||---------------------------------------|
    E||---------------------------------------|
    
    e||------------------------------------|
    B||-8-8-7-8-7---7-8-7---7--------------|
    G||-----------7-------7---7------------|
    D||------------------------------------|
    A||------------------------------------|
    E||------------------------------------|
    
    e||------------------------------------------------------------------|
    B||-8-8-7-8-7---7-10-8-7-8-7------1010-88-77-88-1010-88-7/8-7--------|
    G||-----------7--------------7--------------------------------7~-----|
    D||------------------------------------------------------------------|
    A||------------------------------------------------------------------|
    E||------------------------------------------------------------------|
    
    
    Refrão:
    D        G    Bm     A
    Desconfio que, foi sempre assim
    D         G    Bm  A
    Chega de mentir, e de iludir
    D         G       Bm        A
    Encarar de frente, ao que temos a fazer
    D        G    Bm          A
    Desconfio que, é bem melhor assim
    D        G    Bm          A
    Desconfio que, é bem melhor assim
    D        G    Bm          A
    Desconfio que, é bem melhor assim
    
    Final: Bm,A,D  2 vezes
    
    Riff Final: 
    E||--------10----10---------10--------||
    B||-----------10----10------------10~-||
    G||-----------------------------------||
    D||-----------------------------------||
    A||-9-7----------------9-7------------||
    E||-7-5----------------7-5------------||
    


    Comente
    user 300 caracteres restantes. Enviar

    Todas as letras de CPM 22

    Publicidade
    Notícias
    Mais notícias »
    Hot Spot
    Top Músicas do Vagalume
    Top 100 »

    As informações deste site são postadas integralmente pelos usuários. É importante dizer que é possível que os dados estejam desatualizados ou incorretos, sendo assim, o Vagalume exime-se de qualquer responsabilidade sobre as informações publicadas.Caso haja interesse em remover ou alterar alguma informação, entre em contato conosco.


    É permitida somente a visualização no site das letras de músicas encontradas aqui, vedada sua reprodução através de quaisquer outros meios (Lei 9610/98).Todas as letras de músicas são propriedade dos seus respectivos autores e divulgadas somente para fins educacionais.All lyrics are property and copyright of their owners. All lyrics are provided for educational purposes only.