Muito mais que só letras de músicas

  • Vagalume
  • A-Z
  • Estilos
  • Top 100
  • Playlists
  • Hot Spots
  • Notícias
  • PLAY

    Instrumento:
    A Velha História
    CPM 22
    CPM 22
    
      Baixo: (Toque várias vezes:)
    
    G|-------------------------------|
    D|--------2----------------------|
    A|----------3-3-2-0-------555-5--|
    E|--3-3-5-----------0-00---------|
    
      RIFF 1:
    
                     3 vezes                       2 vezes
    e|--10-7-10-7-10-7-10-7-10-7--10-10/12--107-|-7-8-10--|
    B|-------------------------------------------|---------|  Toque a "segunda" parte
    G|-------------------------------------------|---------|mais ráido...
    D|-------------------------------------------|---------|
    A|-------------------------------------------|---------|
    E|-------------------------------------------|---------|
    
      RIFF 2:
    
    e|-7-8-7-|---7-----------------------------------------|
    B|-------|-10--10-8~--8-1010/12-12-10-12-10-8-10--8~~-|  Toque a "primeira" parte
    G|-------|---------------------------------------------|mais ráido...
    D|-------|---------------------------------------------|
    A|-------|---------------------------------------------|
    E|-------|---------------------------------------------|
    
          ( G C E D )
    Vem cá, diz com está
    Faz tempo que agente não se vê,por isso resolvi ligar...
    
          ( G C E D )
    Vem cá, diz que vai dar
    Pra gente sair juntos, só me diz a hora, que eu vou te buscar..
    C            D             G 
    Te esperei por todos estes anos..
          E                     C      D
    E agora não vou mais me enganar..
    
          ( G C E D )
    Desde que eu te vi não paro de pensar
    Se não for você não vale nem tentar...
    
          ( G C E D )
    Desde que eu te vi não paro de pensar
    Se não for você não vale nem tentar...
    
    RIFF1: (1X) RIFF2: (1X)
    
         ( G C E D )
    Então ta, vou te buscar
    Agora a distancia não me importa mais, sei que vai rolar...
    
         ( G C E D )
    Então ta, vou te buscar
    Agora que nos encontramos, nunca mais vou te largar ...
    
    C            D              G 
    Te esperei por todos estes anos
          E                     C      D
    E agora não vou mais me enganar
     
         ( G C E D )
    Desde que eu te vi não paro de pensar
    Se não for você não vale nem tentar...
    
         ( G C E D )
    Desde que eu te vi não paro de pensar
    Se não for você não vale nem tentar...
    
    Simples né?
    
    
    Por: Guilherme Delai
    


    Comente
    user 300 caracteres restantes. Enviar

    Todas as letras de CPM 22

    Publicidade
    Notícias
    Mais notícias »
    Hot Spot
    Top Músicas do Vagalume
    Top 100 »

    As informações deste site são postadas integralmente pelos usuários. É importante dizer que é possível que os dados estejam desatualizados ou incorretos, sendo assim, o Vagalume exime-se de qualquer responsabilidade sobre as informações publicadas.Caso haja interesse em remover ou alterar alguma informação, entre em contato conosco.


    É permitida somente a visualização no site das letras de músicas encontradas aqui, vedada sua reprodução através de quaisquer outros meios (Lei 9610/98).Todas as letras de músicas são propriedade dos seus respectivos autores e divulgadas somente para fins educacionais.All lyrics are property and copyright of their owners. All lyrics are provided for educational purposes only.