Muito mais que só letras de músicas

  • Vagalume
  • A-Z
  • Estilos
  • Top 100
  • Playlists
  • Hot Spots
  • Notícias
  • PLAY

    Instrumento:
    Intro: (C#m G#m)
      
      (C#m G#m)
      Tirou a roupa, entrou no mar
      pensei meu Deus, que bom que fosse
      Tu me apresenta essa mulher,
      meu irmao te dava te um doce
      Sem roupa ela eh demais
      Tambem por isso eu creio em Deus..
      
      Ainda bem que eu trouxe até meu guarda-sol
      Tenho toda tarde, tenho a vida inteira
      Ja se foi aquele tempo
      da ladeira irmao
      Ja se foi aquele tempo
      da ladeira irmao
     
     
            C#m
      Meu escritorio eh na praia
                   
      Eu to sempre na area
                 Bm                  E5
      Mas eu não sou da sua laia não
    
    
      (C#m G#m)
      Entao,
      deixe viver
      deixe ficar
      Deixe estar como está...
    
    |----------------------------------------------------|
    |----------------------------------------------------|
    |----------------------------------------------------|
    |----------------------------------------------------|
    |-4-4-4--4-6-7-6----------4-4-4--4-6-7-6---9---------|
    |----------------7-7--4-7----------------7-----------|
     
    
     (Soh Toca o Baixo)
    
     Meu Deus
     me de um motivo
     pois eu pago tanto mico
     Ela me ignora, na esparanca
     ainda fico
     Eu to fritando aqui, eu
     vou me entregar,
     nao aguento mais
     Mas se eu nao falar hoje
     talvez nunca veja mais,
     pois
    
     O dia passa, horas se estendem
     as, pessoas ao redor nunca me entendem
     O dia passa hora se estendem as,
     pessoas ao redor nunca me entendem
    
      (C#m G#m)
      Entao,
      deixe viver
      deixe ficar
      Deixe estar como está...
    
    [SOLO]
    
    |----------9----------------------11H12--11--11H12--11-------------------|
    |--------------9--12B14--12B14--------------------------12---------------|
    |--11B13----------------------------------------------------11-----------|
    |---------------------------------------------------------------14--13---|
    |------------------------------------------------------------------------|
    |------------------------------------------------------------------------|
      
    |-------------------------------------------------------------------------|
    |---------------12--------------------------------------------------------|
    |----------13---------13H14P13--13H14P13--14P13P11------------------------|
    |---13H14--------------------------------------------14P13P11H13H14P13P11-|
    |-------------------------------------------------------------------------|
    |-------------------------------------------------------------------------|
     
    |---------------------------------
    |---------------------------------
    |-------------------13------------
    |---------------------------------
    |--14P13P11H13H14-----------------
    |---------------------------------
    
    
    (Baixo e Batera)
     
     O dia passa horas se estendem as,
     pessoas ao redor nunca me entendem
     O dia passa horas se estendem
     as, pessoas ao redor nunca me entendem
      
      [C#m G#m]
      Tirou a roupa, entrou no mar
      pensei meu Deus, que bom que fosse
      Tu me apresenta essa mulher,
      meu irmao te dava te um doce
      Sem roupa ela eh demais
      Tambem por isso eu creio em Deus
      Meu bom,meu Deus,meu bom, me traz
      Ainda bem que eu trouxe até meu guarda-sol
      Tenho toda tarde, tenho a vida inteira
      Ja se foi aquele tempo
      da ladeira irmão
      Ja se foi aquele tempo
      Sangue Bom...
    
    
            C#m
      Meu escritorio eh na praia
    
      Eu to sempre na area
                 Bm                  E5
      Mas eu não ....
    
            C#m
      Meu escritorio eh na praia
    
      Eu to sempre na área
                 Bm                  E5
      Mas eu não sou daquela laia não
    
    
      (C#m G#m) 4X
      Então,
      deixe viver
      deixe ficar
      Deixe estar como está...
    
      Aiê...
    
    
      Saca só...
      As flores são bonitas em qualquer lugar do mundo
      Muita gente tem cara, mais não tem conteúdo...
    
    e|---------------16---------|
    B|------9------------14-----|
    G|--9-----------------------|
    D|--------------------------|
    A|--------------------------|
    E|--------------------------|
    
    *****************************
    
      (C#m)       (G#m)
    
    e|--4--|    e|--4--|
    B|--5--|    B|--4--|
    G|--6--|    G|--4--|
    D|--6--|    D|--6--|
    A|--4--|    A|--6--|
    E|--X--|    E|--X--|


    Comente
    user 300 caracteres restantes. Enviar

    Todas as letras de Charlie Brown Jr

    Publicidade
    Notícias
    Mais notícias »
    Hot Spot
    Top Músicas do Vagalume
    Top 100 »

    As informações deste site são postadas integralmente pelos usuários. É importante dizer que é possível que os dados estejam desatualizados ou incorretos, sendo assim, o Vagalume exime-se de qualquer responsabilidade sobre as informações publicadas.Caso haja interesse em remover ou alterar alguma informação, entre em contato conosco.


    É permitida somente a visualização no site das letras de músicas encontradas aqui, vedada sua reprodução através de quaisquer outros meios (Lei 9610/98).Todas as letras de músicas são propriedade dos seus respectivos autores e divulgadas somente para fins educacionais.All lyrics are property and copyright of their owners. All lyrics are provided for educational purposes only.