Muito mais que só letras de músicas

  • Vagalume
  • A-Z
  • Estilos
  • Top 100
  • Playlists
  • Hot Spots
  • Notícias
  • PLAY

    Instrumento:
    Versão 1
    -======-
    
                          C#5
    Você me diz que sou desajeitado
           F#m
    Eu não sou ninguém
     Bb                     G#m    
       Me tira o sono só pra se sentir bem
      C#5
    Desajeitado
           F#m
    Eu não sou ninguém
     Bb                     G#m    
       Me tira o sono só pra se sentir bem
    
    (C#5,F#m,Bb,G#m)
    O mundo dá várias voltas
    Tomara que um dia ele leve meu caminho a você
    Não tenho grana não
    Mas quando tu chegar 
    Já vou tá lá tu vai me ver
    
    (C#5,F#m,Bb,G#m)
    Desajeitado
    Eu não sou ninguém
    Me tira o sono só pra se sentir bem
    Desajeitado
    Eu não sou ninguém
    Me tira o sono só pra se sentir bem
    
    (C#5,F#m,Bb,G#m)
    O mundo dá várias voltas
    Tomara que um dia ele leve meu caminho a você
    Não tenho grana não
    Mas quando tu chegar 
    Já vou tá lá tu vai me ver
    
    (C#5,F#m,Bb,G#m)
    Sei que um sorriso seu faria bem
    Tu vai de limusine eu vou de trem
    Sei que um sorriso seu faria bem
    Tu vai de limusine eu vou de trem
    
    (C#5,F#m,Bb,G#m)-Bate como no início
    Mas se eu sou um, em um milhão
    O que fazer então
    Não tenho grana, tenho um grande coração
    Não quero ver, quero botar a mão
    Pode acreditar, tu vai comer na minha mão
    
    (C#5,F#m,Bb,G#m)
    Sei que um sorriso seu faria bem
    Tu vai de limusine eu vou de trem
    Sei que um sorriso seu faria bem
    Tu vai de limusine eu vou de trem
    
    (C#5,F#m,Bb,G#m)
    O mundo dá várias voltas
    Tomara que um dia ele leve meu caminho a você
    Pois com você estou em casa
    
    
    Contribuição: Gabriel Fernandes Tôrres(gabrielft@bol.com.br)
    
    
    
    
    
    Versão 2
    -======-
    
    (riff 1)
    
    e-101010--------------------------
    B-888-----888--121212---101010----
    G-777-----555--999------777-------
    D---------555--999------777-------
    A---------------------------------
    E---------------------------------
    
    (RIFF 2)ABAFADO
    
    e---------------------------------
    B---------------------------------
    G777------------------------------
    D777---555---999---777------------
    A555---555---999---777------------
    E------333---777---555------------
    
    e---------------------------------
    B---------------------------------
    G777----121212----161616----141414
    D777----121212----161616----141414
    A555----101010----141414----121212
    E---------------------------------
    
    (RIFF 3)
    
    e---------------------------------
    B101010>91010---------------------
    G7-7-7 >677---777--12>11-11911-999
    D-------------555--10>9--979---777
    A---------------------------------
    E---------------------------------
    
    (SOLO 1)
    
    e-------10------------10----------
    B--7>8-7-------8-7-7>8------------
    G----------7----------------------
    D---------------------------------
    A---------------------------------
    E---------------------------------
    
    (SOLO 2)
    
    e---------------------------------
    B---------------------------------
    G---------------------------------
    D---6>76>7~---4-5-4---------------
    A---------------------------------
    E---------------------------------
    
    A BASE DA MUSICA INTEIRA É:D-G-B-A
    
    (BASE E O RIFF 1)
    
    VOCE ME DIZ  Q EU SOU DESAJEITADO EU NÃO SOU |
    NINGUÉM ME TIRA O SONO SÓ PRA SE SENTIR BEM  |(2X)
    
    (NÃO CONSEGUIR TIRAR ESSE SOLO DE JEITO NENHUM)
    
    (BASE E O RIFF 1)
    O MUNDO DA VARIAS VOLTAS TOMARA Q UM DIA ELE LEVE
    MEU CAMINHO A VOCE, NÃO TENHO GRANA NÃO,
    MAS QUANDO TU CHEGA EU VOU TA LA TU VAI ME VER...
    
    (SOLO 1 E BASE )
    
    SENTIR, SORRISO SEU FARIA BEM TU VAI DELIMUSINE EU VOU DE TREM (2X)
    
    (RIFF 1 E BASE )
    
    MAS EU SOU UM EM UM MILHÃO, NÃO TENHO GRANA, TENHO UM GRANDE CORAÇÃO QUERO VER OTARIO BOTAR A MÃO,
    PODE ACREDITAR TU VAI COMER NA MINHA MÃO...
    
    (SOLO 1 E BASE )
    
    SENTIR O SORRISO SEU FARIA BEM TU VAI DE LIMUSINE EU VOU TREM (2X)
    
    (BAIXO, COM MICROFONIA DA GUITARRA)
    
    (RIFF 2)
    O MUNDO DA VARIAS VOLTAS TOMARA Q UMDIA ELE LEVE MEU CAMINHA A VOCE,
    POIS COM VOCE EU TO EM CASA
    
    (SOLO 2)
    (RIFF 3)
    (RIFF 1)
    


    Comente
    user 300 caracteres restantes. Enviar

    Todas as letras de Charlie Brown Jr

    Publicidade
    Notícias
    Mais notícias »
    Hot Spot
    Top Músicas do Vagalume
    Top 100 »

    As informações deste site são postadas integralmente pelos usuários. É importante dizer que é possível que os dados estejam desatualizados ou incorretos, sendo assim, o Vagalume exime-se de qualquer responsabilidade sobre as informações publicadas.Caso haja interesse em remover ou alterar alguma informação, entre em contato conosco.


    É permitida somente a visualização no site das letras de músicas encontradas aqui, vedada sua reprodução através de quaisquer outros meios (Lei 9610/98).Todas as letras de músicas são propriedade dos seus respectivos autores e divulgadas somente para fins educacionais.All lyrics are property and copyright of their owners. All lyrics are provided for educational purposes only.