Muito mais que só letras de músicas

  • Vagalume
  • A-Z
  • Estilos
  • Top 100
  • Playlists
  • Hot Spots
  • Notícias
  • PLAY

    Instrumento:
    Versão 1:
    
    Olás! Aí vai uma transcrição bem mais detalhada de "Rubão". Como 
    de costume os caras afinam em Eb, ou seja, meio tom abaixo.
    O tom da música é Bm             
                   
                 
    Intro (4x)
    
    Essa introdução é um riff importante da música, que aparece outras vezes.
    Vou chamá-lo de Riff 1. Vc DEVE usar PALM MUTING, ou seja, abafar as cordas
    perto da ponte, com a mão direita. O maluco usa muita distorção e acredite, 
    isso faz toda diferença.
    
        |------------Palm Muting--------| 
    E|-------------------------------------------------------------------------|
    B|-------------------------------------------------------------------------|
    G|-------------------------------------------------------------------------|
    D|-------------------------------------------------------------------------|
    A|-----------5-5---5-7-7----5-8-7-5-7--------------------------------------|
    E|---7-7-5-7-----7--------7------------------------------------------------|
    
    Riff 2
          
    Me parece que as duas guitarras fazem a mesma coisa, ou seja, o Riff 2. 
    Toque-o uma vez e vc vai reconhecer. Note que a primeira pauta rola
    uma vez, depois a outra. 2x cada uma, intercaladas.
    
          B5           A5           G#5       G5  F#5
    E|-------------------------------------------------------------------------|
    B|----12-12-12-12--10-10-10-10--9-9-9-9---8-8-7-7--------------------------|
    G|----x--x--x--x---x--x--x--x---x-x-x-x---x-x-x-x--------------------------|
    D|----9--9--9--9---7--7--7--7---6-6-6-6---5-5-4-4--------------------------|
    A|-------------------------------------------------------------------------|
    E|-------------------------------------------------------------------------|
    
           B5        D5           A5       G#5  G5
    E|-------------------------------------------------------------------------|
    B|----12-12-12-12--15-15-15-15--10-10-10-10--9-9-8-8-----------------------|
    G|----x--x--x--x---xx-xx-xx-xx--x--x--x--x---x-x-x-x-----------------------|
    D|----9--9--9--9---12-12-12-12--7--7--7--7---6-6-5-5-----------------------|
    A|-------------------------------------------------------------------------|
    E|-------------------------------------------------------------------------|
    
    Verse
    
    Só toca o Riff 1 mais alguns improvisos
    
     Desempregado e falido
     Andava pela rua
     Largado e fudido
     Achou na rua
     uma carteira recheada de dólar
     Acabou sua miséria 
     Foi-se o tempo da esmola
    
    Nessa parte entra o Riff 2 
    
     Rubão, um rapaz
     Vive laragado, desempregado e falido
     mas tinha uma carteira recheada de dólar
     Acabou sua miséria 
     Foi-se o tempo da esmola
    
    Chorus
           B5        D5         E5
    E|-------------------------------------------------------------------------|
    B|-------------------------------------------------------------------------|
    G|-----4-4-4-4---7-7-7-7----9-9-9-9----------------------------------------|
    D|-----4-4-4-4---7-7-7-7----9-9-9-9-x-x------------------------------------|
    A|-----2-2-2-2---5-5-5-5----7-7-7-7-x-x------------------------------------|
    E|----------------------------------x-x------------------------------------|
    
    Rubão Rubão
    Pagou pra ver enterrar o ladrão
    Qual é o sentido da Vida
    
    Rubão Rubão
    Pagou pra ver enterrar o ladrão
    Desiludido da vida
    
    
    A parte do "pararapapá" ou algo assim é bem simples, vamos chamar de Riff 3
    
           B5        B5        B5        A5/B5  
    E|-------------------------------------------------------------------------|
    B|-------------------------------------------------------------------------|
    G|-------------------------------------------------------------------------|
    D|-----9-9-x-----9-9-x-----9-9-x-----7/9-9-9-------------------------------|
    A|-----9-9-x-----9-9-x-----9-9-x-----7/9-9-9-------------------------------|
    E|-----7-7-x-----7-7-x-----7-7-x-----5/7-7-7-------------------------------|
    
    
    Comprou várias mulheres
    Convocou os amigos
    Comprou todos o sistema
    Mandou matar os inimigos
    
    Depois rola de novo o Riff 3
    
    É Charlie Brown, isso é Charlie Brown
           
          B5         |--feedback-(B)-|
    E|-------------------------------------------------------------------------|
    B|-----x-------------------------------------------------------------------|
    G|-----4--------------(4)--------------------------------------------------|
    D|-----4-------------------------------------------------------------------|
    A|-----2-------------------------------------------------------------------|
    E|-------------------------------------------------------------------------|
    
    
       Acho que isso é tudo!
    
    
    Contribuição: Uirá Catani(ucatani@hotmail.com)
    
    
    
    
    Versão 2:
    
    Tom: A#m
    Intro: A#m  C#  D#  F#  F (8 Vezes)
    
            A#m      C#
    Desempregado e falido
       D#       F#
    Andava pela rua
        A#m     C#   D#  F#
    Largado e fudido
                  A#m
    Mas tinha na rua
            C#        D#        F#
    uma carteira recheada de dólar
        A#m      C#
    Acabou sua miséria 
              D#         F#
    Foi-se o tempo da esmola
    
               A#m  C#  D#  F#
    O bom rapaz
                  A#m      C#   D#  F#
    Vivia Desempregado e Falido
              A#m     C#       D#         F#
    mas tinha uma carteira recheada de dólar
        A#m      C#
    Acabou sua miséria 
              F#m       F#
    Foi-se o tempo da esmola
    
       A#m   C#
    Rubão Rubão
       D#              F#    C# A#m
    Pagou pra ver enterrar o ladrão
                 C#     D#   F#
    Qual é o sentido da Vida
    
       A#m   C#
    Rubão Rubão
       D#              F#   C#  A#m
    Pagou pra ver enterrar o ladrão
          C#       D#   F#  C#  A#m
    Desiludido da vida
    
            A#m       C#
    Comprou várias mulheres
          D#     F#
    Convocou os amigos
            A#m         C#
    Comprou todos os esquemas
              D#       F#
    Mandou matar os inimigos
    
    -- [ acordes ] --
    A#m = 688666
    C#  = X46664
    D#  = X68886
    F#  = 244322
    F   = 133211
    
    
    Versão 2:
    
    
    INTRO: 
    e |-------------------------------------------------------------|
    B |-------------------------------------------------------------|
    G |-------------------------------------------------------------|
    D |-------------------------------------------------------------|   4 vezes
    A |-------------------4-4---4-6-6---4-7-6-4-6-------------------|  (Abafado)
    E |-----------6-6-4-6-----6-------6-----------------------------|
    
    RIFF 1:
    e |----------------------------------------------------------------|
    B |----------------------------------------------------------------|
    G |----15-15-15-15---13-13-13-13---12-12-12-12---11-11---10-10-----|
    D |----15-15-15-15---13-13-13-13---12-12-12-12---11-11---10-10-----|
    A |----13-13-13-13---11-11-11-11---10-10-10-10----9--9----8--8-----|
    E |----------------------------------------------------------------|
    
    RIFF 2:
    e |----------------------------------------------------------------|
    B |----------------------------------------------------------------|
    G |----15-15-15-15---18-18-18-18---12-12-12-12---11-11---10-10-----|
    D |----15-15-15-15---18-18-18-18---12-12-12-12---11-11---10-10-----|
    A |----13-13-13-13---16-16-16-16---10-10-10-10----9--9----8--8-----|
    E |----------------------------------------------------------------|
    
    REFRÃO:
    e |----------------------------------------------------------------|
    B |----------------------------------------------------------------|
    G |----3-3-3-3---6-6-6-6---8-8-8-8---9--8--6--(8)------------------| 
    D |----3-3-3-3---6-6-6-6---8-8-8-8---9--8--6--(8)------------------|
    A |----1-1-1-1---4-4-4-4---6-6-6-6---7--6--4--(6)------------------| 
    E |----------------------------------------------------------------|
    
    Enquanto uma 2 guitarra repete os RIFFS 1 e 2
    PS. o acorde entre parenteses significa que não e obrigado ser tocado.
    
    
    RIFF 3:
    e |----------------------------------------------------------------|
    B |----------------------------------------------------------------|
    G |----------------------------------------------------------------|
    D |-------8----6----8----8----6------------------------------------| 
    A |-------8----6----8----8----6------------------------------------|
    E |-------6----4----6----6----4------------------------------------|
    
    Fica alternando entre esses acordes...
    


    Comente
    user 300 caracteres restantes. Enviar

    Todas as letras de Charlie Brown Jr

    Publicidade
    Notícias
    Mais notícias »
    Hot Spot
    Top Músicas do Vagalume
    Top 100 »

    As informações deste site são postadas integralmente pelos usuários. É importante dizer que é possível que os dados estejam desatualizados ou incorretos, sendo assim, o Vagalume exime-se de qualquer responsabilidade sobre as informações publicadas.Caso haja interesse em remover ou alterar alguma informação, entre em contato conosco.


    É permitida somente a visualização no site das letras de músicas encontradas aqui, vedada sua reprodução através de quaisquer outros meios (Lei 9610/98).Todas as letras de músicas são propriedade dos seus respectivos autores e divulgadas somente para fins educacionais.All lyrics are property and copyright of their owners. All lyrics are provided for educational purposes only.